» » »

The Avett Brothers - Divorce Separation Blues Tabs

Artists:  A B C D E F G H I J K L M N O P Q R S T U V W X Y Z # 

Divorce Separation Blues Tabs

(ver. 2) Click to play this song!
The Avett Brothers
 Rating:
3.3/5 (29 votes)

 Divorce Separation Blues  lessons Tabs too difficult? Try these video lessons and learn fast
 
                Tuning: STANDARD

e|------------12--12--12--12--12-----10--10--10--10--10--8-8------12-11-10-8-|
B|---------------------------------------------------------------------------|
G|--9-10-11-12--12--12--12--12--11-10--10--10--10--10---9-9-------12-11-10-9-|
D|---------------------------------------------------------------------------|
A|---------------------------------------------------------------------------|
E|---------------------------------------------------------------------------|

e|---------------------------------------------------------------------------|
B|---------------------------------------------------------------------------|
G|---------------------------------------------------------------------------|
D|---------------------------------------------------------------------------|
A|-----0-0-2-2-3-------------------------------------------------------------|
E|-3-3-----------------------------------------------------------------------|

This last part is just a walk-up from G to C, then the song starts with a C chord.            
Submit corrections


        Divorce Separation Blues  lessons Hard to play? Try these video lessons and learn fast Divorce Separation Blues  lessons
        
↑ Back to top | Tablatures and chords for acoustic guitar and electric guitar, ukulele, drums are parodies/interpretations of the original songs. You may use it for private study, scholarship, research or language learning purposes only