» » »

The Avett Brothers - At The Beach Tabs

Artists:  A B C D E F G H I J K L M N O P Q R S T U V W X Y Z # 

At The Beach Tabs

(ver. 2) Click to play this song!
The Avett Brothers
 Rating:
4/5 (4 votes)

 At The Beach lessons Tabs too difficult? Try these video lessons and learn fast
 
                -------------------------------------------------------------------------------
                   At the Beaches - The Avett Brothers
-------------------------------------------------------------------------------

Tuning: Standard


I tabbed this whole thing myself out of my own interpretation for the song.



The strumming pattern for the song is as follows:

e|-3-3-3-3-x-x-3-3-3-3-x-x-3-3-|-3-3-3-3-x-x-3-3-3-3-x-x-3-3-|
B|-5-5-5-5-x-x-5-5-5-5-x-x-5-5-|-3-3-3-3-x-x-3-3-3-3-x-x-3-3-|
G|-5-5-5-5-x-x-5-5-5-5-x-x-5-5-|-4-4-4-4-x-x-4-4-4-4-x-x-4-4-|
D|-5-5-5-5-x-x-5-5-5-5-x-x-5-5-|-5-5-5-5-x-x-5-5-5-5-x-x-5-5-|
A|-3-3-3-3-x-x-3-3-3-3-x-x-3-3-|-5-5-5-5-x-x-5-5-5-5-x-x-5-5-|
E|-----------------------------|-3-3-3-3-x-x-3-3-3-3-x-x-3-3-|




Intro:

e|-3-3-3-3-x-x-3-3-3-3-x-x-3-3-|-3-3-3-3-x-x-3-3-3-3-x-x-3-3-3s5-|
B|-5-5-5-5-x-x-5-5-5-5-x-x-5-5-|-3h5-5-5-x-x-3h5-5-5-x-x-5-5-5s7-|
G|-5-5-5-5-x-x-5-5-5-5-x-x-5-5-|-3h5-5-5-x-x-3h5-5-5-x-x-5-5-5s7-|
D|-5-5-5-5-x-x-5-5-5-5-x-x-5-5-|-3h5-5-5-x-x-3h5-5-5-x-x-5-5-5s7-|
A|-3-3-3-3-x-x-3-3-3-3-x-x-3-3-|-3-3-3-3-x-x-3-3-3-3-x-x-3-3-3s5-|
E|-----------------------------|---------------------------------|


Verse Chords: C  G

Pre-Solo: D  C

The chord right before the solo is:

e|-7-|
B|-8-|
G|-7-|


Solo 1 (1:18):

e|-10-7---------------|----------8-7------|----7------10-7-|----7-------------|
B|------10-8-10-8---8-|-10-8---8-----10-8-|-10---10-8------|-10---10-8---8----|
G|----------------9---|------9------------|----------------|-----------9---7--|
D|--------------------|-------------------|----------------|------------------|
A|--------------------|-------------------|----------------|------------------|
E|--------------------|-------------------|----------------|------------------|

e|-10-7----7-----------------|-7-7-7-7-x-7-7-7-7--7-7-|-7-7-7-7--8-8-8-8--8-7-|
B|------10---10-8-10-8---8---|-8-8-8-8-x-8-8-8-8--8-8-|-8-8-8-8--8-8-8-8--8-8-|
G|---------------------9---7-|-7-7-7-7-x-7-7-7-7--7-7-|-7-7-7-7--7-7-7-7--7-7-|
D|---------------------------|------------------------|-----------------------|
A|---------------------------|------------------------|-----------------------|
E|---------------------------|------------------------|-----------------------|

e|------------------|---------------------------------------------------------|
B|------------------|---------------------------------------------------------|
G|------------------|---------------------------------------------------------|
D|-7-9-7-9-79-79-79-|-----5-----5-----5---------------------------------------|
A|------------------|-5h7---5h7---5h7---5-------------------------------------|
E|------------------|---------------------------------------------------------|

Verse 2: c  G

Solo 2 Chords: C  G  (At 2:32 the chords change to Am  D)

Solo 2 (2:11):

e|-10-7---------7-10-7-------------------------8-7---------7--------10-7----7-|
B|------10-8-10--------10--10-8---8-10-8---8-------10-8-10---10-8--------10---|
G|------------------------------9--------9---9--------------------9-----------|
D|----------------------------------------------------------------------------|
A|----------------------------------------------------------------------------|
E|----------------------------------------------------------------------------|

e|-----------10---7-------------15-15-15-15-15-15-15--14--12-10----10---------|
B|10-8---8----------10-8-10-8-----------------------------------12----12------|
G|-----9---7------------------9-----------------------------------------------|
D|----------------------------------------------------------------------------|
A|----------------------------------------------------------------------------|
E|----------------------------------------------------------------------------|

e|15-15-15-15-15-15-15--14--12-10----10---------------------------------------|
B|--------------------------------12----12--12-10-12-10----------10-----------|
G|------------------------------------------------------12--9-12-----12-------|
D|----------------------------------------------------------------------------|
A|----------------------------------------------------------------------------|
E|----------------------------------------------------------------------------|

e|-------------------------------------------------------------10--12-14--12--|
B|---------------------------10--12-13--12--10--12--13--12-10-----------------|
G|12--9-----9----9-------0----------------------------------------------------|
D|------12----12---7-9-7------------------------------------------------------|
A|----------------------------------------------------------------------------|
E|----------------------------------------------------------------------------|

e|10--12--10-----10--5-----5-------------------------------------------------|
B|------------12-----5-----7-------------------------------------------------|
G|-------------------5-----7-------------------------------------------------|
D|-------------------7-----7-------------------------------------------------|
A|-------------------7-----5-------------------------------------------------|
E|-------------------5-------------------------------------------------------|


Breakdown: G  Em  Am  D

Verse 3: C  G

End on:

e|-7-|
B|-8-|
G|-7-|


| /  slide up
| \  slide down
| h  hammer-on
| p  pull-off
| ~  vibrato
| +  harmonic
| x  Mute note
===============================================================================
            
Submit corrections


        At The Beach lessons Hard to play? Try these video lessons and learn fast At The Beach lessons
        
↑ Back to top | Tablatures and chords for acoustic guitar and electric guitar, ukulele, drums are parodies/interpretations of the original songs. You may use it for private study, scholarship, research or language learning purposes only