Home » T » The Arcs »

The Arcs - The Arc Tabs

Artists:  A B C D E F G H I J K L M N O P Q R S T U V W X Y Z # 

The Arc Tabs

(ver. 1) Click to play this song!
The Arcs
 Rating:
3/5 (26 votes)
                Tuning: Standard

e|---------------------------------------------------------------------------|
B|---------------------------------------------------------------------------|
G|-9p7-----------------------------------------------------------------------|
D|-----9p7-7-7h9/12~------7h9p7~-7p5---------5-------------------------------|
A|-------------------7h10------------7-5-5h7---------------------------------|
E|---------------------------------------------------------------------------|

e|---------------------------------------------------------------------------|
B|---------------------------------------------------------------------------|
G|------------7h9-7----------------------------------------------------------|
D|------------------9-9------------------------------------------------------|
A|----/7-5-7---------------7-5-------------5h7-------------------------------|
E|-0--------------------0------5-5h7--5h7------------------------------------|

e|---------------------------------------------------------------------------|
B|---------------------------------------------------------------------------|
G|------------7h9-7----------------------------------------------------------|
D|------------------9-9------------------------------------------------------|
A|---/7-5-7---------------7-5-----5h7/9p7------------------------------------|
E|-0--------------------0-----5h7--------------------------------------------|            
Submit corrections

↑ Back to top | Tablatures and chords for acoustic guitar and electric guitar, ukulele, drums are parodies/interpretations of the original songs. You may use it for private study, scholarship, research or language learning purposes only