Home » T » The Arcs »

The Arcs - Outta My Mind Tabs

Artists:  A B C D E F G H I J K L M N O P Q R S T U V W X Y Z # 

Outta My Mind Tabs

(ver. 1) Click to play this song!
The Arcs
 Rating:
2.2/5 (23 votes)
                Verse:

     x4
e|---4------2---4-2h4--2-----------------------------------------------------|
B|---5------2----------------------------------------------------------------|
G|---6------2----------------------------------------------------------------|
D|---6------4----------------------------------------------------------------|
A|---4-----------------------------------------------------------------------|
E|---------------------------------------------------------------------------|
    
     x4     x3 
e|---4------2----------------------------------------------------------------|
B|---5------2----------------------------------------------------------------|
G|---6------2----------------------------------------------------------------|
D|---6------4----------------------------------------------------------------|
A|---4-----------------------------------------------------------------------|
E|---------------------------------------------------------------------------|

     x4
e|---4------2---4-2h4--2-----------------------------------------------------|
B|---5------2----------------------------------------------------------------|
G|---6------2----------------------------------------------------------------|
D|---6------4----------------------------------------------------------------|
A|---4-----------------------------------------------------------------------|
E|---------------------------------------------------------------------------|

     x4     x2 
e|---4------2----------------------------------------------------------------|
B|---5------2----------------------------------------------------------------|
G|---6------2----------------------------------------------------------------|
D|---6------4----------------------------------------------------------------|
A|---4-----------------------------------------------------------------------|
E|---------------------------------------------------------------------------|


Chorus:
 
Strong vibrato here.

e|---4--4--4~-----2--2--2~---------------------------------------------------|
B|---5--5--5~-----2--2--2~---------------------------------------------------|
G|---6--6--6~-----2--2--2~---------------------------------------------------| x2
D|---6--6--6~-----4--4--4~---------------------------------------------------|
A|---4--4--4~----------------------------------------------------------------|
E|---------------------------------------------------------------------------|

e|---------------------------------------------------------------------------|
B|---------------------------------------------------------------------------|
G|---------------------------------------------------------------------------|
D|---------------------------------------------------------------------------|
A|-----------------------------4~--------------------------------------------|
E|---5--4--2--0h2--0--5--0h5-------2~----------------------------------------|

Verse:

Dan don't play until the "Saaane" part.

     x4
e|---4-----2-x---4-2h4--2----------------------------------------------------|
B|---5-----2-x---------------------------------------------------------------|
G|---6-----2-x---------------------------------------------------------------|
D|---6-----4-x---------------------------------------------------------------|
A|---4-----------------------------------------------------------------------|
E|---------------------------------------------------------------------------|

     x4
e|---4-----2-2x--------------------------------------------------------------|
B|---5-----2-2x--------------------------------------------------------------|
G|---6-----2-2x--------------------------------------------------------------|
D|---6-----4-4x--------------------------------------------------------------|
A|---4-----------------------------------------------------------------------|
E|---------------------------------------------------------------------------|

Chorus:

e|---4--4--4~-----2--2--2~---------------------------------------------------|
B|---5--5--5~-----2--2--2~---------------------------------------------------|
G|---6--6--6~-----2--2--2~---------------------------------------------------| x2
D|---6--6--6~-----4--4--4~---------------------------------------------------|
A|---4--4--4~----------------------------------------------------------------|
E|---------------------------------------------------------------------------|

e|---------------------------------------------------------------------------|
B|---------------------------------------------------------------------------|
G|---------------------------------------------------------------------------|
D|---------------------------------------------------------------------------|
A|-----------------------------4~--------------------------------------------|
E|---5--4--2--0h2--0--5--0h5-------2~----------------------------------------|

e|---------------------------------------------------------------------------|
B|---------------------------------------------------------------------------|
G|---9-9-9-------------------------------------------------------------------|
D|----------11~~~---9-9-9----------------------------------------------------|
A|-------------------------11~~~--9~~~---------------------------------------|
E|---------------------------------------------------------------------------|

e|---------------------------------------------------------------------------|
B|---------------------------------------------------------------------------|
G|---------------------------------------------------------------------------|
D|---------------------------------------------------------------------------|
A|---------------4-------------4-------------4-------------------------------|
E|-----7-4-7-4-7-----7-4-7-4-7-----7-4-7-4-7---4-----------------------------|

Solo: Sorry no solo.

Break whitout guitar.

e|---------------------------------------------------------------------------|
B|---------------------------------------------------------------------------|
G|---------------------------------------------------------------------------|
D|---------------------------------------------------------------------------|
A|-----------------------------4~--------------------------------------------|
E|---5--4--2--0h2--0--5--0h5-------2~----------------------------------------|

e|---------------------------------------------------------------------------|
B|---------------------------------------------------------------------------|
G|---9-9-9-------------------------------------------------------------------|
D|----------11~~~---9-9-9----------------------------------------------------|
A|-------------------------11~~~---------------------------------------------|
E|---------------------------------2~~~--------------------------------------|            
Submit corrections

↑ Back to top | Tablatures and chords for acoustic guitar and electric guitar, ukulele, drums are parodies/interpretations of the original songs. You may use it for private study, scholarship, research or language learning purposes only