Home » T » The Arcs »

The Arcs - Put A Flower In Your Pocket Tabs

Artists:  A B C D E F G H I J K L M N O P Q R S T U V W X Y Z # 

Put A Flower In Your Pocket Tabs

(ver. 1) Click to play this song!
The Arcs
 Rating:
3.7/5 (20 votes)
                Intro and verse:

  P.M.
e|---------------------------------------------------------------------------|
B|---------------------------------------------------------------------------|
G|---------------------------------------------------------------------------| x4
D|---------------------------------------------------------------------------|
A|-----7-6-7-9-7-6-7----4-3-4-5-4-3-4----------------------------------------|
E|---5----------------2------------------------------------------------------|


Chorus:
     
e|---14-14-14-14-14-14-14-14-------------------------------------------------|
B|---15-15-15-15-15-15-15-15---14---------------14------14-------------------| 
G|---16-16-16-16-14-16-14-16---14--16-16-16-16--14--16--14--16---------------| x2
D|---16-16-16-16-16-16-16-16---14--16-16-16-16--14--16--14--16---------------|
A|---14-14-14-14-14-14-14-14-------------------------------------------------|
E|---------------------------------------------------------------------------|

e|---14~---------------------------------------------------------------------|
B|---15~-----------------------------------------------------7-5-7~----------|
G|---16~-----------------------------------------------6-4-6-----------------|
D|---16~---------------------------4-2-1-----1-2-4-2-4-----------------------|
A|---14~-------12h14-12------------------4-4---------------------------------|
E|-----------------------12--14----------------------------------------------|


Verse 2:

  P.M.
e|---------------------------------------------------------------------------|
B|---------------------------------------------------------------------------|
G|---------------------------------------------------------------------------| x5
D|---------------------------------------------------------------------------|
A|-----7-6-7-9-7-6-7----4-3-4-5-4-3-4----------------------------------------|
E|---5----------------2------------------------------------------------------|


Chorus:
     
e|---14-14-14-14-14-14-14-14-------------------------------------------------|
B|---15-15-15-15-15-15-15-15---14---------------14------14-------------------| 
G|---16-16-16-16-14-16-14-16---14--16-16-16-16--14--16--14--16---------------| x2
D|---16-16-16-16-16-16-16-16---14--16-16-16-16--14--16--14--16---------------|
A|---14-14-14-14-14-14-14-14-------------------------------------------------|
E|---------------------------------------------------------------------------|

e|---14~---------------------------------------------------------------------|
B|---15~-----------------------------------------------------7-5-7~----------|
G|---16~-----------------------------------------------6-4-6-----------------|
D|---16~---------------------------4-2-1-----1-2-4-2-4-----------------------|
A|---14~-------12h14-12------------------4-4---------------------------------|
E|-----------------------12--14----------------------------------------------|


Bridge:

    F#m  E    Bm   C#maj
e|--2----0----2----4---------------------------------------------------------|
B|--2----0----3----6---------------------------------------------------------|
G|--2----1----4----6---------------------------------------------------------|
D|--4----2----4----6---------------------------------------------------------|
A|--4----2----2----4---------------------------------------------------------|
E|--2----0-------------------------------------------------------------------|

               F#m
With tired eyes
E
And bills to pay
Bm
You gotta make it through
C#maj
Another day
F#m
The streets can see
E
Into your soul
Bm
It ain't where ya been
C#maj
But where you're gonna go


Chorus:
     
e|---14-14-14-14-14-14-14-14-------------------------------------------------|
B|---15-15-15-15-15-15-15-15---14---------------14------14-------------------| 
G|---16-16-16-16-14-16-14-16---14--16-16-16-16--14--16--14--16---------------| x4
D|---16-16-16-16-16-16-16-16---14--16-16-16-16--14--16--14--16---------------|
A|---14-14-14-14-14-14-14-14-------------------------------------------------|
E|---------------------------------------------------------------------------|

e|---14~---------------------------------------------------------------------|
B|---15~-----------------------------------------------------7-5-7~----------|
G|---16~-----------------------------------------------6-4-6-----------------|
D|---16~---------------------------4-2-1-----1-2-4-2-4-----------------------|
A|---14~-------12h14-12------------------4-4---------------------------------|
E|-----------------------12--14----------------------------------------------|            
Submit corrections

↑ Back to top | Tablatures and chords for acoustic guitar and electric guitar, ukulele, drums are parodies/interpretations of the original songs. You may use it for private study, scholarship, research or language learning purposes only