» » »

The Almost - Everything That Makes Me Sick Tabs

Artists:  A B C D E F G H I J K L M N O P Q R S T U V W X Y Z # 

Everything That Makes Me Sick Tabs

(ver. 1) Click to play this song!
The Almost
 Rating:
4/5 (4 votes)

 Everything That Makes Me Sick lessons Tabs too difficult? Try these video lessons and learn fast
 
                (Intro)

Tuning:drop d    THIS IS JUST A START!!!

e|-x-x-x--------------------------------------------------------------------|
B- x-x-x--------------------------------------------------------------------|
G|-x-x x--2--------4-----------2---------4----------------------------------|
D|-x-x-x--2-x 2----4--x2-------2--x 2----4--x2--------------------x 2-------|
A|-x-x-x--0--------2-----------0---------2----------------------------------|
E|-x-x-x----------------5b-------------------------5b--------2--------------|

e|--------------------------------------------------------------------------|
B|--------------------------------------------------------------------------|
G|--------------------------------------------------------------------------|
D|--9--------7--------5-----------------7-----------------------------------|
A|--9-x 8----7--x 8---5--x 16--~slide~--7--x 2----------x2------------------|
E|--9--------7--------5-----------------7-----------------------------------|
    xxxxxplam mutedxxxx                open
            
Submit corrections


        Everything That Makes Me Sick lessons Hard to play? Try these video lessons and learn fast Everything That Makes Me Sick lessons
        
↑ Back to top | Tablatures and chords for acoustic guitar and electric guitar, ukulele, drums are parodies/interpretations of the original songs. You may use it for private study, scholarship, research or language learning purposes only