» » »

The Almost - Everything That Makes Me Sick Tabs

Artists:  A B C D E F G H I J K L M N O P Q R S T U V W X Y Z # 

Everything That Makes Me Sick Tabs

(ver. 2) Click to play this song!
The Almost
 Rating:
4/5 (5 votes)

 Everything That Makes Me Sick lessons Tabs too difficult? Try these video lessons and learn fast
 
                Tuning: Standard

I usually play this on my acoustic, but I'm sure it's the same for the electric version. 

Intro/Pre Verse:

These are the chords used for the intro/pre verse, figure out the strum pattern.

e|--------------------------------|
B|--------------------------------|
G|--2----2----2-----2-------------|
D|--2-----------------------------|
A|-------2----------2-------------|
D|------------2b------------------|


Verse:

These are the chords used for the verse, figure out the strum pattern.

Part 1:
e|-------------------------|
B|-------------------------|
G|--2----2----2----2-------|
D|-------2-----------------|
A|--2----------------------|
D|------------2----3-------| (PALM MUTED)

Part2:
e|-------------------------|
B|-------------------------|
G|--2----2----2----2-------|
D|-------2-----------------|
A|--2----------------------|
D|------------2----3-------| (STRUM)


Pre Chorus:

These are the chords used for the pre chorus, figure out the strum pattern.

e|-------------------------|
B|-------------------------|
G|--2------2--4--5---------|
D|-------------------------|
A|-------------------------|
D|--3------3--5--6---------|


Chorus:

These are the chords used for the chorus, figure out the strum pattern.

e|-------------------------|
B|-------------------------|
G|--6----2----4--5---------|
D|-------------------------|
A|-------------------------|
D|--7----3----5--6---------|


Bridge:

These are the chords used for the bridge, figure out the strum pattern.

e|------------------------------|
B|------------------------------|
G|--9---8--6--4--2--1--2--4--5--|
D|------------------------------|
A|------------------------------|
D|--10--9--7--5--3--2--3--5--6--|

Song Breakdown:

Intro: X4
Verse (Part 1): X2
Verse (Part 2): X2
Pre Chorus: X1
Chorus: X2
Pre Verse: X2
Verse (Part 2): X2
Verse (Part 1): X2
Pre Chorus: X1
Chorus: X2
Bridge: X2
Chorus: X2
            
Submit corrections


        Everything That Makes Me Sick lessons Hard to play? Try these video lessons and learn fast Everything That Makes Me Sick lessons
        
↑ Back to top | Tablatures and chords for acoustic guitar and electric guitar, ukulele, drums are parodies/interpretations of the original songs. You may use it for private study, scholarship, research or language learning purposes only