Home » T » The All American Rejects »

The All American Rejects - Cigarette Song Tabs

Artists:  A B C D E F G H I J K L M N O P Q R S T U V W X Y Z # 

Cigarette Song Tabs

(ver. 1) Click to play this song!
The All American Rejects
 Rating:
4/5 (4 votes)
                Hello All.
I just want you to know that this is the only tab out there of this song!  it is so damn cool!
I love this song.  I will try my hardest to make this clear fo you all! I will not put the strumming in for you.
Download the song and listen for the patterns!!!


Standard Tuning



Intro

e ----------
B ----------
G --x-x-x-x-   After, go right into verse/lyrics
D --x-x-x-x-
A --x-x-x-x-
E ----------


Verse

   E                 F             A              A
e --------------------------------------------------------------
B --------------------------------------------------------------
G -11-1--1-1--1-1-11--------------------------------------------    Repeat
D -22-2--2-2--2-2-22-4-4-4--4-4-44-7-7-7--7-7-77--7-7-7--7-7-77-
A -22-2--2-2--2-2-22-4-4-4--4-4-44-7-7-7--7-7-77--7-7-7--7-7-77-
E -------------------2-2-2--2-2-22-5-5-5--5-5-55--5-5-5--5-5-55-


Lyrics w/notes

E        F        A       A
   Bring back the memories,
E             F            A   A
   This one's giving up on you.
E               F            A        A
   I don’t miss giving up on you, And there's no more time.
E          F           A F E (strum-let ring) 
   Forgive me one more time.



*Chorus

(Palm Muted-Gradually get louder.)

      E             B     A
Cause I....don't....want you
A
Away....
    B       
Just....bury me I am 
A       E (stum - let ring)
Away...

(now Guitar II comes in)

II guitar
               Right here:
   E           *Guitar I repats The Palm mutes in same order. 
 
e -0-----------------0--------
B -----0----:----0-----0---0-:
G ---1---1------1--1-----1----   Repeat :dots:
D ----------:--2-------------:
A ---------------------------- 
E ----------------------------



Whispered warning
Away
Just bury me I am 
Away

YOU ALL GET THE IDEA!!!!  IT IS MOSTLY THOSE CHORDS!!! SO HAVE FUN!  HERE BEING THE NICE
LAD I AM, I PUT THE OTHER LYRICS IN FOR YA'S!!!!



And not a day has passed,
That I’m regretting.
The window’s closed,
And she's not letting me in.

One place, one place slipped away and
Missed call, missed calls
I can't stay too late
She’s gone
I will miss her voice, her eyes, 
and love's first kiss.

I can't remind you all the time
Bring it back, bring it back
To where we were before
I can't remind you all the time
No, no
Bring it back, bring it back

One place, one place slipped away
Missed call, missed calls
I can't stay too late
She’s gone
I will miss her voice, her eyes, 
and love's first kiss.

The day is gone
The sky is blue
I know you're all alone
And the sky is blue
Come back to me
The sky is blue
The sky is blue
            
Submit corrections

↑ Back to top | Tablatures and chords for acoustic guitar and electric guitar, ukulele, drums are parodies/interpretations of the original songs. You may use it for private study, scholarship, research or language learning purposes only