Home » T » The All American Rejects »

The All American Rejects - Cigarette Song Tabs

Artists:  A B C D E F G H I J K L M N O P Q R S T U V W X Y Z # 

Cigarette Song Tabs

(ver. 2) Click to play this song!
The All American Rejects
 Rating:
4/5 (4 votes)
                (Correct)
This song is sooo good everyone should download it or do 
whatever they have to do to get this song. The other tab was a little
wrong so here is the correct version...


There’s not really any chorus or verses or anything it just kind of 
all comes together, so I wrote the lyrics for where each part of 
the song changes. They have a little * next to them ;-)

e --x-x-x-x--
B --x-x-x-x--
G --x-x-x-x--  
D --x-x-x-x--
A --x-x-x-x--
E --x-x-x-x—

Then go right into


*Bring back the memories...
    
     E      F#mi11      Asus2       Amaj9          A6
e --------------------------------------------------------------
B --------------------------------------------------------------
G ---1-------2----------2----------4----slide----1--------------
D ---2-------2----------2----------6-------------3--------------
A ---2----------------------------------------------------------
E -----------2--------------------------------------------------

(3x) and on the 4x end with 
      
     Asus2       G#mi7      F#mi11
e ----------------------------------------------------------------|
B ----------------------------------------------------------------|
G ----2-----------4----------2------------(let each chord ring)---|
D ----2-----------4----------2------------------------------------|
A ----------------------------------------------------------------|
E ----------------4----------2------------------------------------|


*Cause I don’t want...

Palm mute and gradually get louder 

      E     B/E        C#/E      C#mi     Asus2
e ----x------x----------x---------4---------x------------------------
B ----x------x----------x---------5---------x------------------------
G ----x------x--slide---x---------6---------2------------------------    
D ----x------4----------6---------6---------2------------------------
A ----2------2----------4---------4----------------------------------
E --------------------------------4----------------------------------

(1x) then flatpick this out:


      A
e ----0----0-------------------0------------------------------------|
B ----1--------1-----------0-------0-----0--------------------------|
G ----2------2-----------1-----1-------1----------------------------|
D ----2----------2-----2--------------------------------------------|
A ----0-------------------------------------------------------------|
E ----0-------------------------------------------------------------|

This is played continuously by Guitar 2 while Guitar 1 is still 
palm muting.


*And not a day has passed...
       
       C#mi      Csus2      C#mi
e ------4----------4---------4------------------------------------|
B ------4----------4---------4------------------------------------|
G ------5----------4---------5----------(4x)----------------------|
D ------6----------6---------6------------------------------------|
A ------6----------6---------6------------------------------------|
E ------4----------4---------4------------------------------------|


*One place, one place...
         E                   B7
e -------0--------------------0-----------------------------------|
B -------0--------------------0-----------------------------------|
G -------1-----1--------------2-----------(2x)--------------------|
D -------2-----2--------------4-----------------------------------|
A -------2--------------------2-----------------------------------|
E ----6--0--6----6-6----------0-----------------------------------|


Now the Electric Guitar comes in

*I can’t remind you...

     A5          A      E
e ---x-----------x------0-----------------------------------------|
B ---x-----------x------0-----------------------------------------|
G ---x---slide---x------1--------------(4x)-----------------------|
D ---x-----------x------2-----------------------------------------|
A ---4-----------5------2-----------------------------------------|
E ---7-----------7------0-----------------------------------------|


*One place. One place...

         E                   B7
e -------0--------------------0-----------------------------------|
B -------0--------------------0-----------------------------------|
G -------1-----1--------------2-----------(2x)--------------------| 
D -------2-----2--------------4-----------------------------------|
A -------2--------------------2-----------------------------------|
E ----6--0--6----6-6----------0-----------------------------------|


Here is the ending, flatpick this out

*The day is gone, the sky is...

e ----------------------------------------------------------------
B ----------------------------------------------------------------
G ------------------------------------------------1--------------- 
D ------2---2-1-2----------2---2-1-2----------2-----2---2---------
A ----2---2-------2------2---2-------2------2---2-----2-----------
E --4------------------5------------------0-----------------------


e ----------------------------------------------------------------|
B ----------------------------------------------------------------|
G -----------2-1---1----------------------------------------------|
D ------2--------4------------------------------------------------|
A ----2---2-------------------------------------------------------|
E --0-------------------------------------------------------------|


I didn’t write out timing or strumming or anything, so just listen to 
the song to figure it out 

THIS SONG IS AWESOME SO HAVE FUN!
            
Submit corrections

↑ Back to top | Tablatures and chords for acoustic guitar and electric guitar, ukulele, drums are parodies/interpretations of the original songs. You may use it for private study, scholarship, research or language learning purposes only