» » »

The All American Rejects - Night Drive Tabs

Artists:  A B C D E F G H I J K L M N O P Q R S T U V W X Y Z # 

Night Drive Tabs

(ver. 2) Click to play this song!
The All American Rejects
 Rating:
4/5 (4 votes)

 Night Drive lessons Tabs too difficult? Try these video lessons and learn fast
 
                Artist : All-American Rejects
Song   : Night Drive
Album  : Move Along
Tuning : Standard

Intro (dist.)
e|-------x-x-x---------x-x-x---------x-x-x---------x-x---4-----| 
B|-------x-x-x---------x-x-x---------x-x-x---------x-x---4-----|
G|-2-2---x-x-x---------x-x-x---5-5---x-x-x---------x-x---4-----|
D|-2-2---x-x-x---2-2---x-x-x---5-5---x-x-x---5-5---x-x---------|
A|-0-0---x-x-x---2-2---x-x-x---3-3---x-x-x---5-5---x-x---------|
E|-------x-x-x---0-0---x-x-x---------x-x-x---3-3---x-x---------|

e|-----------------------------------------------------------|x2 
B|-----------------------------------------------------------|
G|-2--2--2-2-2-----------------5--5--5-5-5-------------------|
D|-2--2--2-2-2---2--2--2-2-2---5--5--5-5-5---5--5--5-5-5-----|
A|-0--0--0-0-0---2--2--2-2-2---3--3--3-3-3---5--5--5-5-5-----|
E|---------------0--0--0-0-0-----------------3--3--3-3-3-----|

Verse
e|----------------------------------------------------| 
B|-------------10------------8-----------8---10---5---|
G|------9--------------9-----------7--------------4---|
D|-10------10-------9-----9-----9-----9-----------6---|
A|----------------------------------------------------|
E|----------------------------------------------------|

e|--------------------------------------------------------------| 
B|-------------10------------8-----------8---10---5-------------|
G|------9--------------9-----------7--------------4-------------|
D|-10------10-------9-----9-----9-----9-----------6----2---2----|
A|-----------------------------------------------------2---2----|
E|-----------------------------------------------------0---0----|

Pre-chorus Gtr.1
e|-------------------------------------------------------------------| 
B|---------10------10------10-----10---8--------8--------8-----8-----|
G|----9-------9-------9-------9------9---9----9---9----9---7-----7---|
D|-10---10------10------10------10---------10-------10-------9-----9-|
A|-------------------------------------------------------------------|
E|-------------------------------------------------------------------|

e|------------------------------------------------------------------------| 
B|-10-----------10-----10------10------10---8--------8--------10-------10-|
G|----9----9-------9------9-------9-------9---9----9---9----9----11-------|
D|------10---10------10-----10------10----------10-------10---------12----|
A|------------------------------------------------------------------------|
E|------------------------------------------------------------------------|

Pre-chorus Gtr.2
e|--------------------------------------------------------------| 
B|--------------------------------------------------------------|
G|-2------------------------------------------------------------|
D|-2------------------------------------------------------------|
A|-0-0-0-0-0-0-0-0-0-0-0-0-0--/3-3-3-3-3-3-3-5------------------|
E|----------------------------------------------3-3-3-3-3-3-4---|

e|------------------------------------------------------------------| 
B|------------------------------------------------------------------|
G|------------------------------------------------------------------|
D|------------------------------------------------------------------|
A|-0-0-0-0-0-0-0-0-0-0-0-0-0-0-0-0--3-3-3-3-3-3-3-3-/5-5-5-5-5-5-5--|
E|------------------------------------------------------------------|

Chorus (dist.) Gtr.1 and 2
e|-----------------------------------------------------------------------|x2 
B|-----------------------------------------------------------------------|
G|-------------2--2--2-2-2-----------------5--5--5-5-5-------------------|
D|-x-x-x-x-2---2--2--2-2-2---2--2--2-2-2---5--5--5-5-5---5--5--5-5-5-----|
A|-x-x-x-x-2---0--0--0-0-0---2--2--2-2-2---3--3--3-3-3---5--5--5-5-5-----|
E|-x-x-x-x-2-----------------0--0--0-0-0-----------------3--3--3-3-3-----|

Interlude
e|--------------------------------------------------------------------| 
B|-10--10--10--10----8--8--8--8----8--8--8--8----9--9--9--9\----------|
G|--9---9---9---9----9--9--9--9----7--7--7--7----9--9--9--9\----------|
D|-10--10--10--10----9--9--9--9----9--9--9--9----9--9--9--9\---5--7---|
A|--------------------------------------------------------------------|
E|--------------------------------------------------------------------|

Verse (palm mute)
e|-----------------------------------------------------------| 
B|-----------------------------------------------------------|
G|-----------------------------------------------------------|
D|-----7-----5-7-----5-----5-7-----5-----5-7-----------------|
A|---7-----7-------7-----7-------5-----5---------7-----5-7---|
E|-5-----5-------0-----0-------3-----3-------0-7---0-7-------|

e|-----------------------------------------------------------| 
B|-----------------------------------------------------------|
G|-----------------------------------------------------------|
D|-----7-----5-7-----5-----5-7-----5-----5-7-----6-----6-7---|
A|---7-----7-------7-----7-------5-----5-------7-----7-------|
E|-5-----5-------0-----0-------3-----3-------0-----0---------|

Pre-chorus
e|--------------------------------------------|
B|--------------------------------------------|
G|-2~~~~~~~5~~~~~~-------2~~~~~~~5~~~~~~~7----|
D|-2~~~~~~~5~~~~~~5~~~~~~2~~~~~~~5~~~~~~~7----|
A|-0~~~~~~~3~~~~~~5~~~~~~0~~~~~~~3~~~~~~~5----|
E|----------------3~~~~~~---------------------|

Chorus (dist.) Gtr.1 and 2
e|-----------------------------------------------------------------------|x2 
B|-----------------------------------------------------------------------|
G|-------------2--2--2-2-2-----------------5--5--5-5-5-------------------|
D|-x-x-x-x-2---2--2--2-2-2---2--2--2-2-2---5--5--5-5-5---5--5--5-5-5-----|
A|-x-x-x-x-2---0--0--0-0-0---2--2--2-2-2---3--3--3-3-3---5--5--5-5-5-----|
E|-x-x-x-x-2-----------------0--0--0-0-0-----------------3--3--3-3-3-----|

Interlude
e|----------------------------------------| 
B|----------------------------------------|
G|----------14--------12--------12-14-9---|
D|-10-14-10----9-14-9----9-12-9-----------|
A|----------------------------------------|
E|----------------------------------------|


e|-----------------------------------------------------------| 
B|-10--10--10--10----8--8--8--8----7--7--7--7----9--9--9--9--|
G|--9---9---9---9----7--7--7--7----7--7--7--7----9--9--9--9--|
D|-10--10--10--10----9--9--9--9----7--7--7--7----9--9--9--9--|
A|-----------------------------------------------------------|
E|-----------------------------------------------------------|

Chorus (dist.) Gtr.1 and 2
e|--------------------------------------------------------------|x2
B|--------------------------------------------------------------|
G|----2--2--2-2-2-----------------5--5--5-5-5-------------------|
D|----2--2--2-2-2---2--2--2-2-2---5--5--5-5-5---5--5--5-5-5-----|
A|----0--0--0-0-0---2--2--2-2-2---3--3--3-3-3---5--5--5-5-5-----|
E|------------------0--0--0-0-0-----------------3--3--3-3-3-----|

End w/ this
e|------------------------------------------------------------------|
B|------------------------------------------------------------------|
G|----2--2--2-2-2-----------------5--5--5-5-5---7--7--7-7-7---------|
D|----2--2--2-2-2---2--2--2-2-2---5--5--5-5-5---7--7--7-7-7---7--7--|
A|----0--0--0-0-0---2--2--2-2-2---3--3--3-3-3---5--5--5-5-5---7--7--|
E|------------------0--0--0-0-0-------------------------------5--5--|
            
Submit corrections


        Night Drive lessons Hard to play? Try these video lessons and learn fast Night Drive lessons
        
↑ Back to top | Tablatures and chords for acoustic guitar and electric guitar, ukulele, drums are parodies/interpretations of the original songs. You may use it for private study, scholarship, research or language learning purposes only