» » »

The All American Rejects - Night Drive Bass

Artists:  A B C D E F G H I J K L M N O P Q R S T U V W X Y Z # 

Night Drive Bass

(ver. 1) Click to play this song!
The All American Rejects
 Rating:
4/5 (4 votes)

 Night Drive lessons Tabs too difficult? Try these video lessons and learn fast
 
                -------------------------------------------------------------------------------
			     Night Drive - The All-American Rejects
-------------------------------------------------------------------------------


Tuning: Standard (EADG)


I was looking at the other bass tab for this song, 
and I played it a few times and I noticed 
that his tab was a 1/2 step too high, so I fixed it.  
The hardest part to tab was the bridge. (Which I'm still not sure about actually) 


If anybody has questions, 
suggestions or anything just send me an e-mail at my address above.

This song is really fun and easy to play!


Play this at 0:06

G|-------|
D|-------|
A|-------|
E|5/~----|


Intro x2  0:13

G|-----------------------------------|
D|-----------------------------------|
A|0-0-000-------3-3-333--------------|
E|-------0-0-000-------3-3-333-------|


Verse 1 x1  0:41

G|------------------------------------|
D|------------------------------------|
A|0000000000000000-33333333-----------|
E|-------------------------33333333---|

G|------------------------------------|
D|------------------------------------|
A|0000000000000000-33333333-55555555--|
E|------------------------------------|


Chorus x2  0:55

G|------------------------------------|
D|------------------------------------|
A|0-0-000-------3-3-333---------------|
E|-------0-0-000-------3-3-333--------|


Verse 2 x2  1:14

G|-------------------------------------------|
D|-------------------------------------------|
A|-------------------------------------------|
E|0/5--55555555-00000000-33333333-55555555---|

Verse 1 x1  1:28
Chorus x4  1:42
No bass in guitar solo


Bridge x1  2:18

G|--------------------------------------------------------|
D|--------------------------------------------------------|
A|--------------------------------------------------------|
E|1\5-5 (Just strum that note continually thorugh bridge)-|


But if you want to play the bridge along with the guitar, play this

G|------------------------------------------|
D|------------------------------------------|
A|------------------------------------------|
E|1\5-5x32--88-88-8-55-55-5-33-33-3-88-88-8-|


Play this at 2:47

G|-------|
D|-------|
A|-------|
E|5/~----|


Outro x4

G|--------------------------------|
D|--------------------------------|
A|0-0-000-------3-3-333-----------|
E|-------0-0-000-------3-3-333----|


This song I think would be good for someone who's just starting out.


PEACE OUT


| /  slide up
| \  slide down
| h  hammer-on
| p  pull-off
| ~  vibrato
| +  harmonic
| x  Mute note
===============================================================================
            
Submit corrections


        Night Drive lessons Hard to play? Try these video lessons and learn fast Night Drive lessons
        
↑ Back to top | Tablatures and chords for acoustic guitar and electric guitar, ukulele, drums are parodies/interpretations of the original songs. You may use it for private study, scholarship, research or language learning purposes only