» » »

The All American Rejects - I Wanna Tabs

Artists:  A B C D E F G H I J K L M N O P Q R S T U V W X Y Z # 

I Wanna Tabs

(ver. 3) Click to play this song!
The All American Rejects
 Rating:
4/5 (4 votes)

 I Wanna lessons Tabs too difficult? Try these video lessons and learn fast
 
                                        The All-American Rejects - I Wanna


Written by Mr.Blakey.


Standard Tuning

* - Palm Mute
h - Hammer on
p - Pull of
v - Vibrate


I  Never Thought.....
------------------------------------------------------------|
------------------------------------------------------------|
---------------55-55--------------------------55-55---------|
-55-55--44-44--55-55--55-55-----55-55--44-44--55-55--55-55--|
-55-55--55-55--33-33--55-55-----55-55--55-55--33-33--55-55--|
-33-33--22-22---------33-33-----33-33--22-22---------33-33--|


Can You Hear Me Say...                                 I Gotta hold You Somehow....
------------------------------------------------------------------------|
------------------------------------------------------------------------|
---------555555---------------------------------------------------------|
-222222--555555--555555--444444--222222--101010101010--1212121212121212-|
-222222--333333--555555--555555--222222--101010101010--1212121212121212-|
-000000----------333333--222222--000000--8-8-8-8-8-8---1010101010101010-|
  ** *    ** *    ** *    ** *    ** *     * *   *


I wanna I wanna I wanna touch you....
---------------------------------------------------------|  X2
---------------------------------------------------------|
---------------------------------------------------------|
-----555555--44--22222222--99999999--10101010--12121212--|
-----555555--55--22222222--99999999--10101010--12121212--|
15\--333333--22--00000000--77777777--8-8-8-8---10101010--|

------------------------------------------------------------------------|
------------------------------------------------------------------------|
---------555555---------------------------------------------------------|
-222222--555555--555555--444444--222222--101010101010--1212121212121212-|
-222222--333333--555555--555555--222222--101010101010--1212121212121212-|
-000000----------333333--222222--000000--8-8-8-8-8-8---1010101010101010-|
  ** *    ** *    ** *    ** *    ** *     * *   *


I wanna I wanna I wanna touch you....
------------------------------------------------------|  X2
------------------------------------------------------|
------------------------------------------------------|
--555555--44--22222222--99999999--10101010--12121212--|
--555555--55--22222222--99999999--10101010--12121212--|
--333333--22--00000000--77777777--8-8-8-8---10101010--|


[Solo]
--------------------------------------------------------------------------------------|
---------------------------------------------------------121212-13-12-----------------|
-12h14-1414-12h14-1414-12h14-14/16--12h14-1414-12h14-14---------------14-12-14-11v----|
----------------------------------------------------------------------------------12v-|
--------------------------------------------------------------------------------------|
--------------------------------------------------------------------------------------|

-12h13p12--------12---------|
-----------14-12---12-12/14-|
----------------------------|
----------------------------|
----------------------------|
----------------------------|


Tonight Im Weak....             Hear Me Say...
---------------------------------------------|
---------------------------------------------|
---------------------------------------------|
-5--7--10--12----5--7--10--12---5--7--10--12-|
-5--7--10--12----5--7--10--12---5--7--10--12-|
-3--5--8---10----3--5--8---10---3--5--8---10-|
                                *  *  *   *


No Way Out....
----------------------------------------|
----------------------------------------|
----------------------------------------|
-222222--101010101010--1212121212121212-|
-222222--101010101010--1212121212121212-|
-000000--8-8-8-8-8-8---1010101010101010-|
  ** *     * *   *


---------------------------------------------------------|  X2
---------------------------------------------------------|
---------------------------------------------------------|
-----555555--44--22222222--99999999--10101010--12121212--|
-----555555--55--22222222--99999999--10101010--12121212--|
15\--333333--22--00000000--77777777--8-8-8-8---10101010--|

I wanna I wanna I wanna touch you....
--------------------------------------------------------------------------------------|
---------------------------------------------------------121212-13-12-----------------|
-12h14-1414-12h14-1414-12h14-14/16--12h14-1414-12h14-14---------------14-12-14-11v----|
----------------------------------------------------------------------------------12v-|
--------------------------------------------------------------------------------------|
--------------------------------------------------------------------------------------|

-12h13p12--------12--------- X2 |-----|
-----------14-12---12-12/14-    |-14\-| Second Time Round
----------------------------    |-----|
----------------------------    |-----|
----------------------------    |-----|
----------------------------    |-----|
            
Submit corrections


        I Wanna lessons Hard to play? Try these video lessons and learn fast I Wanna lessons
        
↑ Back to top | Tablatures and chords for acoustic guitar and electric guitar, ukulele, drums are parodies/interpretations of the original songs. You may use it for private study, scholarship, research or language learning purposes only