» » »

The All American Rejects - I Wanna Tabs

Artists:  A B C D E F G H I J K L M N O P Q R S T U V W X Y Z # 

I Wanna Tabs

(ver. 2) Click to play this song!
The All American Rejects
 Rating:
4/5 (4 votes)

 I Wanna lessons Tabs too difficult? Try these video lessons and learn fast
 
                -------------------------------------------------------------------------------
                             I Wanna- The All- American Rejects
-------------------------------------------------------------------------------

Tuning: Standard
This is my first tab so rate nicely! This is all Nick's part. I didnt put in the
strumming patterns just in case they were wrong. :]
Watch the buzznet acoustic version here:

Intro/Verses:
e|-------------------------------------------------------------|
B|-----------------------------13-13--13-13--------------------|
G|-12-12--12-12--11-11--11-11--12-12--12-12----12-12--12-12----|
D|-12-12--12-12--12-12--12-12--xx-xx--xx-xx----12-12--12-12----|
A|-10-10--10-10--9--9---9--9---10-10--10-10----10-10--10-10----|
E|-------------------------------------------------------------|

If you don't like using power chords you can play these chords:
Those are the chords Nick uses in the Buzznet acoustic version.
EADGBE:
3x0033
200233
x3x033
3x0033


Prechorus: 2x
e|-3--3--3--2--------------------------------------|
B|-3--3--3--3--------------------------------------|
G|-0--0--0--2--------------------------------------|
D|-2--x--0--0--------------------------------------|
A|-2--3--x--0--------------------------------------|
E|-0-----3--x--------------------------------------|

Chorus
e|-3--0--0--0--3------------------------------------|
B|-3--3--3--3--3------------------------------------|
G|-0--2--0--2--0------------------------------------|
D|-0--0--2--0--x------------------------------------|
A|-x--0--2--2--3------------------------------------|
E|-3--2--0--x---------------------------------------|

*UPDATE*6.21.10: I realized after carefully watching a live performance of this song 
i had the solo wrong :( This is an easy way to play it, but it isnt right.
SOLO!!!
e|-3h5-5-3h5-5-3h5-5-5/7-7------5-5-3h5-----------------------|
B|-------------------------3-3----------3/10-8----------------|
G|------------------------------------------------------------|
D|------------------------------------------------------------|
A|------------------------------------------------------------|
E|------------------------------------------------------------|

e|-7h8p7------------7h8p7-----7-------------------------------|
B|-------10-8-10-7--------10-8--8-8/10~-----------------------|
G|----------------7~------------------------------------------|
D|------------------------------------------------------------|
A|------------------------------------------------------------|
E|------------------------------------------------------------|

Here's the more accurate one.
e|-3-5-5p3-5-5p3-5-5p3-3-7-7-3-5-5p3-5-5-5/10-7------------|
B|-3-3-3-3-3-3-3-3-3-3-3-3-3-3-3-3-3-3-3-5/10-8------------|
G|---------------------------------------------------------|
D|---------------------------------------------------------|
A|---------------------------------------------------------|
E|---------------------------------------------------------|

e|-7h8p7---------------7h8p7------7---------------------------|
B|-8------10-8-10-7----8-----10-8-8--8-8/10~------------------|
G|------------------7~----------------------------------------|
D|------------------------------------------------------------|
A|------------------------------------------------------------|
E|------------------------------------------------------------|

Bridge
e|-3--0--3--2--3--3---------------------------------------------|
B|-3--3--3--3--3--3--10b-11b--13b-14b---------------------------|
G|-0--2--0--2--0--0---------------------------------------------|
D|-0--2--x--0--0--2---------------------------------------------|
A|-x--0--3--0--x--2---------------------------------------------|
E|-3--x-----x--3--0---------------------------------------------|

After bridge play the prechorus then the chorus along with the solo.
| /  slide up
| \  slide down
| h  hammer-on
| p  pull-off
| ~  vibrato
| +  harmonic
| x  Mute note
===============================================================================
UPDATED 5/26/09
ADDED MIKE'S PART(now you can jam with a friend)

Intro:
e|----------------------------------------|
B|----------------------------------------|
G|---------------------5-5--5-5-----------|
D|-5-5--5-5--4-4--4-4--5-5--5-5-5-5--5-5--|
A|-5-5--5-5--5-5--5-5--3-3--3-3-5-5--5-5--|
E|-3-3--3-3--2-2--2-2-----------3-3--3-3--|

Prechorus:
e|-------------------------------------------|
B|-------------------------------------------|
G|-----5------------5--7---------------------|
D|--2--5--5--4---2--5--7---------------------|
A|--2--3--5--5---2--3--5---------------------|
E|--0-----3--2---0---------------------------|

Chorus: x2
e|------------------------------------|
B|------------------------------------|
G|-----------4--5---------------------|
D|--5--4--2--4--5---------------------|
A|--5--5--2--2--3---------------------|
E|--3--2--0---------------------------|


Verse(same)

First half of prechorus 2:
e|-------------------------------------------|
B|-------------------------------------------|
G|-------------------------------------------|
D|-------------------------------------------|
A|-7--7s6--6s4--4/12-------------------------|
E|-5--5s4--4s2--2/10--12\--------------------|


AND THAT Should get you through the whole song
Just swap parts if you dont like the other guitarist's part.
OK?
***And same as Nick's part, i didn't want to put in the strumming in Mike's part just in
it was wrong. I didn't wanna mess you guys up.***
            
Submit corrections


        I Wanna lessons Hard to play? Try these video lessons and learn fast I Wanna lessons
        
↑ Back to top | Tablatures and chords for acoustic guitar and electric guitar, ukulele, drums are parodies/interpretations of the original songs. You may use it for private study, scholarship, research or language learning purposes only