» » »

The All American Rejects - Happy Endings Tabs

Artists:  A B C D E F G H I J K L M N O P Q R S T U V W X Y Z # 

Happy Endings Tabs

(ver. 2) Click to play this song!
The All American Rejects
 Rating:
4/5 (4 votes)

 Happy Endings lessons Tabs too difficult? Try these video lessons and learn fast
 
                Tunning: Normal

Chorus (played for intro too):
   Guitar 1:
e|--------------------|--------------------|
B|--9---7---6---------|--------------------|
G|--------------6-----|--------------------|
 |                    |                    |
 | Guitar 2:          |                    |
e|--------------------|--------------------|
B|--------------------|--------------------|
G|--6666666666666666--|--------------------|
D|--6666666666666666--|--4444444444444444--|
A|--4444444444444444--|--4444444444444444--|
E|--------------------|--2222222222222222--|

   Guitar 1:
e|--------------------|--------------------|
B|--9---7---6---------|--------------------|
G|--------------6-----|--------------------|
 |                    |                    |
 | Guitar 2:          |                    |
e|--------------------|--------------------|
B|--------------------|--------------------|
G|--8888888888888888--|--------------------|
D|--8888888888888888--|--4444444444444444--|
A|--6666666666666666--|--4444444444444444--|
E|--------------------|--2222222222222222--|


Verse:
"Time does tell that even if the say so..."
e|---------------------------------------------------|
B|---------------------------------------------------|
G|--xx-6666-xx-6666-xx-4444-xx-6666------------------|
D|--xx-6666-xx-6666-xx-4444-xx-6666-xx-4444-xx-4444--|     x 2
A|--xx-4444-xx-4444-xx-2222-xx-4444-xx-4444-xx-4444--|
E|----------------------------------xx-2222-xx-2222--|


Pre-Chorus:
"You - you asked me what went wrong..."
e|------------------------------------|
B|------------------------------------|
G|--8-------6-------8---7---6---------|
D|--8-------8-------8---9---8---------|
A|------------------------------------|
E|------------------------------------|

"One - more thing before I go..."
e|------------------------------------|
B|------------------------------------|
G|--8-------6-------8---10--6---------|
D|--8-------8-------8---6---8---------|
A|------------------------------------|
E|------------------------------------|


Chorus:  "Happy Endings..."

Pre-Verse:
"Walks alone..."
e|-------------------|
B|-------------------|
G|-------------------|
D|--xx-4444-xx-4444--|
A|--xx-4444-xx-4444--|
E|--xx-2222-xx-2222--|

Verse: "...have often led to thinking..."

Pre-Chorus: "You - you asked me what went wrong..."

Chorus: "Happy Endings..."

Break: "She walks away..."

Chorus: "Happy Endings..." x 2

Done!


Lyrics:

Time does tell
That even if they say so
She'd be the one that would know
That I did do what I've done
And I, I wouldn't call it cheating
I'd just say I was leading her on
Why walk while I run away

You - you ask me what went wrong
Me - I'll write you this last song
Please - just tell me one way we can win
One - more thing before I go
Two - the one who loves me so
Three - don't make me count to three again

Happy endings
Just what did you do, if you're a dream then come true
Stop pretending
That what you mean isn't what you say
Hopeful dreaming,
Of times before the pain, wishing it was still the same
Loving, leaving
Round and round and round we go again

Walks alone have often lead to thinking
My love for you is sinking to what seems an all time low
or high, the limits never ending,
And don't you know I'm sending
There's no venture I won't go
For you

She walks away, she talks away
She walks away
She walks away, she talks away
Away, away...
            
Submit corrections


        Happy Endings lessons Hard to play? Try these video lessons and learn fast Happy Endings lessons
        
↑ Back to top | Tablatures and chords for acoustic guitar and electric guitar, ukulele, drums are parodies/interpretations of the original songs. You may use it for private study, scholarship, research or language learning purposes only