» » »

The All American Rejects - Happy Endings Tabs

Artists:  A B C D E F G H I J K L M N O P Q R S T U V W X Y Z # 

Happy Endings Tabs

(ver. 1) Click to play this song!
The All American Rejects
 Rating:
4/5 (4 votes)

 Happy Endings lessons Tabs too difficult? Try these video lessons and learn fast
 
                Intro and chorus

e----------------------------------------
b----------------------------------------
g-6--------------------------------------
d-6-(x16)--4-----------------------------
a-4--------4-(x16)-----------------------
e----------2-----------------------------

Verse 1

e--------------------------------------------------------------------------------
b--------------------------------------------------------------------------------(2x)
g-6666-xx-6666-xx-4444-xx-6666-xx------------------------------------------------
d-6666-xx-6666-xx-4444-xx-6666-xx-4444-xx-4444-xx--------------------------------
a-4444-xx-4444-xx-2222-xx-4444-xx-4444-xx-4444-xx--------------------------------
e---------------------------------2222-xx-2222-xx--------------------------------

Verse 2

e---------------------------------------------------------------------
b---------------------------------------------------------------------(2x)
G-----------------6666-xx-6666-xx-4444-xx-6666-xx---------------------
d-4444-xx-4444-xx-6666-xx-6666-xx-4444-xx-6666-xx-4444-xx-4444-xx-----
a-4444-xx-4444-xx-4444-xx-4444-xx-2222-xx-4444-xx-4444-xx-4444-xx-----
e-2222-xx-2222------------------------------------2222-xx-2222-xx-----


It ends on
E---------------------------------------------------
B---------------------------------------------------
G-6------------------------------------------------
D-6------------------------------------------------
A-4------------------------------------------------
E---------------------------------------------------

Listen to song to figure out timing...not very hard
            
Submit corrections


        Happy Endings lessons Hard to play? Try these video lessons and learn fast Happy Endings lessons
        
↑ Back to top | Tablatures and chords for acoustic guitar and electric guitar, ukulele, drums are parodies/interpretations of the original songs. You may use it for private study, scholarship, research or language learning purposes only