» » »

The All American Rejects - Gives You Hell Tabs

Artists:  A B C D E F G H I J K L M N O P Q R S T U V W X Y Z # 

Gives You Hell Tabs

(ver. 3) Click to play this song!
The All American Rejects
 Rating:
4/5 (4 votes)

 Gives You Hell lessons Tabs too difficult? Try these video lessons and learn fast
 
                -------------------------------------------------------------------------------
                             Gives You Hell - All-American Rejects
-------------------------------------------------------------------------------

This song is played in standard tuning. If you think any thing is wrong, let me

Tuning: EADGBe

Intro/Verse A
e|---------------------------------------------------------------------------|
B|------9--------5--------2--------2-----------------------------------------|
G|------9--------6--------2--------2-----------------------------------------|
D|------9--------6--------2--------2-----------------------------------------|
A|--7-7-7----4-4-4----0-0-0----0-0-0-----------------------------------------|
E|---------------------------------------------------------------------------|

Pre-Chorus (You can skip this part if wanted)
e|--7---------7--------------------------------------------------------------|
B|--7----9----7--------------------------------------------------------------|
G|--8----9----8----2---------------------------------------------------------|
D|--9----9----9----2---------------------------------------------------------|
A|--9----7----9----0---------------------------------------------------------|
E|--7---------7--------------------------------------------------------------|

Chorus
e|---------------------------------------------------------------------------|
B|---------------------------------------------------------------------------|
G|--9--9-------------------------9--9----------------------------------------|
D|--9--9--11-11--7--7----7--7----9--9--9--9--7--7----7--7--------------------|
A|--7--7--11-11--7--7----7--7----7--7--9--9--7--7----7--7--X2----------------|
E|--------9--9---5--5----5--5----------7--7--5--5----5--5--------------------|

Solo
e|---------------------------------------------------------------------------|
B|--12^r-9-10-9---------12^-9-10-9----12---12^12-----------------------------|
G|-------------11----------------11------------------------------------------|
D|---------------10^---------------------------------------------------------|
A|---------------------------------------------------------------------------|
E|---------------------------------------------------------------------------|

Verse B
e|------------5-----------0--------------------------------------------------|
B|------9-----------9--------------------------------------------------------|
G|-----9-----6-----9-----6---------------------------------------------------|
D|----9-----6-----9-----6----------------------------------------------------|
A|---7-----4-----7-----4-----------------------------------------------------|
E|---------------------------------------------------------------------------|

Pre-Chorus


Chorus

Breakdown(Listen to the song for the timing)
e|--------0---0----------------------------------------------------------------|
B|--5--2--0----0-------5--5--2-------------------------------------------------|
G|--6--2--1------2-----6--6--2--4----------------------------------------------|
D|--6--2--2------4-----6--5--2--4----------------------------------------------|
A|--4--0--2------0-----4--4--0--2----------------------------------------------|
E|--------0------0-------------------------------------------------------------|

Outro
e|-----------------------------------------------------------------------------|
B|-----------------------------------------------------------------------------|
G|--9--9----9--9----2--2----2--2----6--6--4--4--9--9---------------------------|
D|--9--9----9--9----2--2----2--2----6--6--4--4--9--9--X2-----------------------|
A|--7--7----7--7----0--0----0--0----4--4--2--2--7--7---------------------------|
E|-----------------------------------------------------------------------------|

e|---------------------------------------------------------------------------|
B|---------------------------------------------------------------------------|
G|--6--6--4--4--9--9----6------4---------------------------------------------|
D|--6--6--4--4--9--9----6--X4--4--X4-----------------------------------------|
A|--4--4--2--2--7--7----4------2---------------------------------------------|
E|---------------------------------------------------------------------------|


| /  slide up
| \  slide down
| h  hammer-on
| p  pull-off
| ~  vibrato
| +  harmonic
| x  Mute note
===============================================================================
            
Submit corrections


        Gives You Hell lessons Hard to play? Try these video lessons and learn fast Gives You Hell lessons
        
↑ Back to top | Tablatures and chords for acoustic guitar and electric guitar, ukulele, drums are parodies/interpretations of the original songs. You may use it for private study, scholarship, research or language learning purposes only