» » »

The All American Rejects - Gives You Hell Tabs

Artists:  A B C D E F G H I J K L M N O P Q R S T U V W X Y Z # 

Gives You Hell Tabs

(ver. 1) Click to play this song!
The All American Rejects
 Rating:
4/5 (4 votes)

 Gives You Hell lessons Tabs too difficult? Try these video lessons and learn fast
 
                The All American Rejects
Standard

i did this by ear by myself on my acoustic so...
and i'm still working it out so check for updates

Gtr.1 - Acoustic
Gtr.2 - Electric

Intro
 Gtr.1
|------|
|------|
|-9--9-|
|-9--9-|
|------|
|------|
|Gtr.2 |
|------|
|------|
|------| fade in
|-9~---|
|-7~---|
|------|

 Gtr.1
|------------------------|
|-----------6-----6----6-|
|-----9-----5-----5----5-| 2x
|-----9------------------|
|-7-7---4-4---0-0---0-0--|
|------------------------|

Verse
 Gtr.1
|------------------------|
|-----------5-----5----5-|
|-----9-----6-----6----6-| 4x
|-----9------------------|
|-7-7---4-4---0-0---0-0--|
|------------------------|

|--------------------------------|-------------------------|
|------------------5-----5-----5-|-----------5-----5-----5-|
|------------9-----6-----6-----6-|-----9-----6-----6-----6-|
|------------9-------------------|-----9-------------------|
|--------7-7---4-4---0-0---0-0---|-7-7---4-4---0-0---0-0---|
|--------------------------------|-------------------------|
|Gtr.2                                                     |
|--------------------------------|-------------------------|
|--------------------------------|-------------------------|
|--------------------------------|-------------------------|
|--------------------------------|-------------------------|
|--------------4-4---------------|-------4-4---------------|
|-5-4-2--0-0---------5-5---5-5---|-0-0---------5-5---5-4-2-|

 Gtr.1
|------------------------|
|-----------5-----5----5-|
|-----9-----6-----6----6-| 2x
|-----9------------------|
|-7-7---4-4---0-0---0-0--|
|------------------------|
|Gtr.2                    |
|-------------------------|
|-------------------------| play
|-------------------------| second
|-------------------------| time
|-------------------------|
|-------------------5-4-2-|

 Gtr.1
|------------------------|
|-----------5-----5----5-|
|-----9-----6-----6----6-| 2x
|-----9------------------|
|-7-7---4-4---0-0---0-0--|
|------------------------|

Pre-Chorus
 Gtr.1
|----------------------------------|
|--------------------------------2-|
|-----1--------2-------1-------2---|
|---2---2----2---2---2---2---2-----|
|-2--------0-------2-------0-------|
|----------------------------------|

Chorus
 Gtr.1
|-------------------------|
|-----------5-----5-----5-|
|-----9-----6-----6-----6-|
|-----9-------------------|
|-7-7---4-4---0-0---0-0---|
|-------------------------|
|Gtr.2                    |
|-------------------------|
|-------------------------|
|-------6-6---------------|
|-2-2---6-6---7-7---7-7-7-|
|-2-2---4-4---7-7---7-7-7-|
|-0-0---------5-5---5-5-5-|

Solo
 Gtr.1
|-------------------------------------------------------|
|-----------5-----5-----5-----------5-----5-----5-------|
|-----9-----6-----6-----6-----9-----6-----6-----6-------|
|-----9-----------------------9-------------------------|
|-7-7---4-4---0-0---0-0---7-7---4-4---0-0---0-0---------|
|-------------------------------------------------------|
|Gtr.2                                                  |
|-9\7-4-5p4---------------9\7-4-5p4---7-7/9-7-----------|
|-----------7-----------------------7-------------------|
|-------------5b----------------------------------------|
|-------------------------------------------------------|
|-------------------------------------------------------|
|-------------------------------------------------------|

Verse2
 Gtr.1
|------------------5---------------------5---|
|-------9--------5---5--------9--------5---5-|
|-----9---9----4------------9---9----4-------|
|---9---------------------9------------------|
|-7----------4----------7----------4---------|
|--------------------------------------------|

Pre-Chorus
 Gtr.1
|----------------------------------|
|--------------------------------2-|
|-----1--------2-------1-------2---|
|---2---2----2---2---2---2---2-----|
|-2--------0-------2-------0-------|
|----------------------------------|

Chorus
 Gtr.1
|-------------------------|
|-----------5-----5-----5-|
|-----9-----6-----6-----6-|
|-----9-------------------|
|-7-7---4-4---0-0---0-0---|
|-------------------------|
|Gtr.2                    |
|-------------------------|
|-------------------------|
|-------6-6---------------|
|-2-2---6-6---7-7---7-7-7-|
|-2-2---4-4---7-7---7-7-7-|
|-0-0---------5-5---5-5-5-|

Interlude
 Gtr.1
|----------------------------|
|-9--5-----5-5-5--9--5--5--3-|
|-9--6--1--6-5-6--9--6--6--4-|
|-9--7--2--6-6-7--9--7--6--4-|
|-7--7--2--4-6-7--7--7--4--2-|
|----5--0----4-5-----5-------|
|Gtr.2|
|------------------------------------------------------|
|------------------------------------------------------|
|------------------------------------------------------|
|------------------------------------------------------|
|------------------------------------------------------|
|------------------------------------------------------|

Chorus
|------------------------------------------------------|
|------------------------------------------------------|
|------------------------------------------------------|
|------------------------------------------------------|
|------------------------------------------------------|
|------------------------------------------------------|
            
Submit corrections


        Gives You Hell lessons Hard to play? Try these video lessons and learn fast Gives You Hell lessons
        
↑ Back to top | Tablatures and chords for acoustic guitar and electric guitar, ukulele, drums are parodies/interpretations of the original songs. You may use it for private study, scholarship, research or language learning purposes only