» » »

The All American Rejects - Fallin Apart Tabs

Artists:  A B C D E F G H I J K L M N O P Q R S T U V W X Y Z # 

Fallin Apart Tabs

(ver. 3) Click to play this song!
The All American Rejects
 Rating:
4/5 (4 votes)

 Fallin Apart lessons Tabs too difficult? Try these video lessons and learn fast
 
                
My first tab, learned it in a few minutes but I think its 100% correct.

e|---/8-7--5h7p5----------------------------------/8-7--5h7p5------|
B|----------------/8v-------------------8----------------------8v--|
G|--------------------------5h7p5--7/9---9----5\2p0----------------|
D|---------------------5/7-----------------------------------------|
A|-----------------------------------------------------------------|
E|-----------------------------------------------------------------|



e|----------------------15-----------------------------------------|
B|---------13------- 17----17--13----------------------------------|
G|--12h14-----14/17----------------12\\\\\\------------------------|
D|-----------------------------------------------------------------|
A|-----------------------------------------------------------------|
E|-----------------------------------------------------------------|
            
Submit corrections


        Fallin Apart lessons Hard to play? Try these video lessons and learn fast Fallin Apart lessons
        
↑ Back to top | Tablatures and chords for acoustic guitar and electric guitar, ukulele, drums are parodies/interpretations of the original songs. You may use it for private study, scholarship, research or language learning purposes only