» » »

The All American Rejects - Fallin Apart Tabs

Artists:  A B C D E F G H I J K L M N O P Q R S T U V W X Y Z # 

Fallin Apart Tabs

(ver. 2) Click to play this song!
The All American Rejects
 Rating:
4/5 (4 votes)

 Fallin Apart lessons Tabs too difficult? Try these video lessons and learn fast
 
                -----------------------------------------------------------------------------
                 FALLIN' APART - All-American Rejects
-----------------------------------------------------------------------------

Tuning: Standard

Intro - violin arranged for guitar

e|----8/15--12------8-12-13-12-10------5/12--10------12-10-7----|
B|--------------------------------------------------------------|
G|--------------------------------------------------------------|
D|--------------------------------------------------------------|
A|--------------------------------------------------------------|
E|--------------------------------------------------------------|

Verse - 1st Half - (distant) - This repeats through the song, so all
                               you have to do is work out the timings

e|--12------------12-----------12-------|
B|--12------------12-----------12-------|
G|--12------------12-----------12-------|
D|--------------------------------------|
A|--------------------------------------|
E|--------------------------------------|

Verse - 2nd half (palm mute if you wish)

e|--------------------------------------------------------------------------------|
B|--------------------------------------------------------------------------------|
G|----2-2-2--------7-7-7--------2-2-2--------5-5-5--------2-2-2--------7--7--7--7-|
D|----2-2-2--------7-7-7--------2-2-2--------5-5-5--------2-2-2--------7--7--7--7-|
A|----0-0-0--------5-5-5--------0-0-0--------3-3-3--------0-0-0--------5--5--5--5-|
E|--------------------------------------------------------------------------------|

Chorus - Guitar 1

e|--------------------------------------------------------------|
B|--------------------------------------------------------------|
G|----2--2--2--2--5--5--5--5------------------------------------|
D|----2--2--2--2--5--5--5--5--5--5--5--5--5--5--5--5--6---------|   x2
A|----0--0--0--0--3--3--3--3--5--5--5--5--5--5--5--5--6---------|
E|----------------------------3--3--3--3--3--3--3--3--4---------|

Guitar 2

e|----------------3--3--3--3--3--3--3--3--3--3--3--3--3---------|
B|----------------3--3--3--3--3--3--3--3--3--3--3--3--3---------|
G|----2--2--2--2--0--0--0--0--0--0--0--0--0--0--0--0--0---------|
D|----2--2--2--2--2--2--2--2--0--0--0--0--0--0--0--0--0---------|   x2
A|----0--0--0--0--3--3--3--3--2--2--2--2--2--2--2--2--2---------|
E|----------------------------3--3--3--3--3--3--3--3--3---------|

Solo

e|-----------------------------------------------------------------|
B|----/13--12--10h12p10-----------------------8--------------------|
G|----------------------12---------5--7p5-7/9---7--5---------------|
D|-----------------------------5/7--------------------7----5-------|
A|-----------------------------------------------------------------|
E|-----------------------------------------------------------------|

e|-----------------------------------------------------------------------|
B|----/13--12--10h12p10--------------13--15p13--15/17--15--13------------|
G|----------------------12-----12/14----------------------------12\------|
D|-----------------------------------------------------------------------|
A|-----------------------------------------------------------------------|
E|-----------------------------------------------------------------------|

Bridge - Distant

e|----------------------------|
B|----------------------------|
G|--------------9-------------|
D|----7-7--7-7--9--7-7--7-7---| Repeated
A|----7-7--7-7--7--7-7--7-7---|
E|----5-5--5-5-----5-5--5-5---|

When I look to the stars...
e|-------------------------------------------------|
B|-------------------------------------------------|
G|-------------------------------------------------|
D|--3-3-3-3-3-3-3-3-5-5-5---------7-7-7-7-7-7-7-7--| 
A|--3-3-3-3-3-3-3-3-5-5-5--------------------------|
E|--1-1-1-1-1-1-1-1-3-3-3--------------------------|
    P.M..................

Outro - also distant, listen carefully
 
e|------------------------------------|
B|----------------------5-------------|
G|----5/7-------------5---7-----------|
D|--------------5--7------------------|
A|------------------------------------|
E|------------------------------------|

| /  slide up
| \  slide down
| h  hammer-on
| p  pull-off
| ~  vibrato
| +  harmonic
| x  Mute note
=============================================================================
            
Submit corrections


        Fallin Apart lessons Hard to play? Try these video lessons and learn fast Fallin Apart lessons
        
↑ Back to top | Tablatures and chords for acoustic guitar and electric guitar, ukulele, drums are parodies/interpretations of the original songs. You may use it for private study, scholarship, research or language learning purposes only