» » »

The All American Rejects - Drive Away Tabs

Artists:  A B C D E F G H I J K L M N O P Q R S T U V W X Y Z # 

Drive Away Tabs

(ver. 2) Click to play this song!
The All American Rejects
 Rating:
4/5 (4 votes)

 Drive Away lessons Tabs too difficult? Try these video lessons and learn fast
 
                Drive Away 
The All-American Rejects


Hi.  This probably isn't 100% correct, but I think that it sounds at least 
remotely close. This is my first tab, and I really like The All-American
Rejects, and I think that perhaps it was just by chance that I figured out
this song...it's totally great...um...the amount of times that they play 
the cords of the chorus differ and there are pauses towards the end of the
chorus, but it's really easy, just listen to the song to figure it out.  
Well enjoy,and hope it helps you! :D


Intro
e---------------------------|-----------------------------|
B---------------------------|-----------------------------|
G-------9-99---7-77---7-77--|---------9-99---7-77---5567--|
D--77---9-99---7-77---7-77--|--7-77---9-99---7-77---5567--|
A--77---7-77---5-55---5-55--|--7-77---7-77---5-55---3345--|
E--55-----------------------|--5-55-----------------------|


Verse
e---------------------------|--------------------|
B---------------------------|--------------------|
G-------9-99---7-77---7-77--|--77777777---99-99--|(x2)
D--77---9-99---7-77---7-77--|--77777777---99-99--|
A--77---7-77---5-55---5-55--|--55555555---77-77--|
E--55-----------------------|--------------------|
		              pm........

Chorus
e------------------------------|--------------------------|
B------------------------------|--------------------------|
G---------7------9------7------|---------7------9------7--|
D--7------7(x4)--9(x4)--7(x4)--|--7------7(x6)--9(x6)--7--|
A--7(x4)--5------7------5------|--7(x4)--5------7------5--|
E--5---------------------------|--5-----------------------|

e---------------------------|------------|
B---------------------------|------------|
G---------7------9-------7--|--7------9--|
D--7------7(x6)--9(x12)--7--|--7(x3)--9--|
A--7(x6)--5------7-------5--|--5------7--|
E--5------------------------|------------|


After Chorus
e--------------------------------------------------|
B--------------------------------------------------|
G---------------------------------7--------9-------|
D--77-xxx--77-xxx--55-xxx--5567---7(x12)---9(x12)--|
A--77-xxx--77-xxx--55-xxx--5567---5--------7-------|
E--55-xxx--55-xxx--33-xxx--3345--------------------|


Bridge
e--------------------------|--------------------------|
B--------------------------|--------------------------|
G--------------------------|--------------------------|
D--9999---7777---555555/7--|--9999---7777---555555/7--|
A--9999---7777---555555/7--|--9999---7777---555555/7--|
E--7777---5555---333333/5--|--7777---5555---333333/5--|
		
e--------------------------|-----------------|
B--------------------------|-----------------|
G--------------------------|--7-------99-99--|
D--9999---7777---555555/7--|--7(x8)---99-99--|
A--9999---7777---555555/7--|--5-------77-77--|
E--7777---5555---333333/5--|-----------------|
			    pm......

Song Progression:
Intro
Verse
Chorus
After Chorus
Intro
Verse
Chorus
After Chorus
Bridge
Chorus
After Chorus
Chorus
            
Submit corrections


        Drive Away lessons Hard to play? Try these video lessons and learn fast Drive Away lessons
        
↑ Back to top | Tablatures and chords for acoustic guitar and electric guitar, ukulele, drums are parodies/interpretations of the original songs. You may use it for private study, scholarship, research or language learning purposes only