» » »

The All American Rejects - Drive Away Tabs

Artists:  A B C D E F G H I J K L M N O P Q R S T U V W X Y Z # 

Drive Away Tabs

(ver. 1) Click to play this song!
The All American Rejects
 Rating:
4/5 (4 votes)

 Drive Away lessons Tabs too difficult? Try these video lessons and learn fast
 
                Standard Tuning

Intro (guitar 1)
e|-------------------------|
B|-------------------------|
G|----xxx-99-xxx-77-xxx-77-|
D|-77-xxx-99-xxx-77-xxx-77-|(X2)
A|-77-xxx-77-xxx-55-xxx-55-|
E|-55----------------------|

Intro (guitar 2)
e|---------------------------------------------------|
B|------------------------------------------------10-|
G|-9—-11-9—-11-9—-11-9----9—-11-9—-11-9—-11-11-9—-9--|
D|-11-12-11-12-11-12-11---11-12-11-12-11-12-12-11----|
A|---------------------------------------------------|
E|---------------------------------------------------|

Verse (guitars 1 and 2)
e|----------------------------|
B|----------------------------|
G|----99-77-77-77777777/99-99-|(X2)
D|-77-99-77-77-77777777/99-99-|
A|-77-77-55-55-55555555/77-77-|
E|-55-------------------------|
               ……………

Pre-Chorus
e|------------------------------------------|
B|------------------------------------------|
G|------7777-99999999—-7~-xx-9~-------------|
D|-7777-7777-99999999—-7~-xx-9~-------------|
A|-7777-5555-77777777—-5~-xx-7~-/pick slide-|
E|-5555-------------------------------------|

Chorus
e|-----------------------------------------------|
B|-----------------------------------------------|
G|-------------------------------77777777-99999x-|
D|-77-xxxx-77-xxxx-44-xxxx-44444-77777777-99999x-|
A|-77-xxxx-77-xxxx-44-xxxx-44444-55555555-77777x-|
E|-55-xxxx-55-xxxx-22-xxxx-22222-----------------|
then slide up and then down

Intro
Verse
Pre-chorus
Chorus

Bridge
e|---------------------------------------------------------------------------|
B|---------------------------------------------------------------------------|
G|-----------7777777/9-----------777777-xxxx-----------777777-77777777/99—99-|
D|-4444-2222-7777777/9-4444-2222-777777-xxxx-4444-2222-777777-77777777/99-99-|
A|-4444-2222-5555555/7-4444-2222-555555-xxxx-4444-2222-555555-55555555/77—77-|
E|-2222-0000-----------2222-0000-------------2222-0000-----------------------|

Bridge continued (clean)
e|-----------------------------------------------------|
B|-----------------------------------------------------|
G|------7777-9999-7777------7777-9999-7x------------xx-|
D|-7777-7777-9999-7777-7777-7777-9999-7x(distorted)-xx-|
A|-7777-5555-7777-5555-7777-5555-7777-5x------------xx-|
E|-5555----------------5555----------------------------|

Pre-chorus
Chorus
At the end of the chorus go like this
e|----------|
B|----------|
G|-xxxxxxxx-|
D|-xxxxxxxx-|
A|-xxxxxxxx-|
E|----------|

Outro
e|---------------------|
B|---------------------|
G|-----------7777-9999-|
D|-7777-4444-7777-9999-|(X3) 
A|-7777-4444-5555-7777-|
E|-5555-2222-----------|
then go like this
e|-----------------------------|
B|-----------------------------|
G|---------------7777-9999-----|
D|-xx7xx7-xx4xx4-7777-9999-77x-|
A|-xx7xx7-xx4xx4-5555-7777-77x-|
E|-xx5xx5-xx2xx2-----------55x-|
well that’s it! Enjoy..please rate and chek out my other tabs!
            
Submit corrections


        Drive Away lessons Hard to play? Try these video lessons and learn fast Drive Away lessons
        
↑ Back to top | Tablatures and chords for acoustic guitar and electric guitar, ukulele, drums are parodies/interpretations of the original songs. You may use it for private study, scholarship, research or language learning purposes only