» » »

The All American Rejects - Dance Inside Tabs

Artists:  A B C D E F G H I J K L M N O P Q R S T U V W X Y Z # 

Dance Inside Tabs

(ver. 6) Click to play this song!
The All American Rejects
 Rating:
3.4/5 (9 votes)

 Dance Inside lessons Tabs too difficult? Try these video lessons and learn fast
 
                (Intro)
-------------------------------------------------------------------------------
                             DANCE INSIDE - The All-American Rejects
-------------------------------------------------------------------------------


Tuning:standard

intro              x3
e|-----------------|---------------------------------------------------------|
B|--5--5-4h5-5-----|--5--5-4/2------5--5-4h5-5--------------------------------|
G|--------------4--|-----------4/1--------------4----------------------------|
D|-----------------|---------------------------------------------------------|
A|-----------------|---------------------------------------------------------|
E|-----------------|---------------------------------------------------------|

e|-------------------------------19-16---------------------------------------|
B|--5—5h7p5-4-5--5--5-4h5-5-----------14-------------------------------------|
G|---------------------------4-4---------------------------------------------|
D|---------------------------------------------------------------------------|
A|---------------------------------------------------------------------------|
E|---------------------------------------------------------------------------|

verse
e|---------------------------------------------------------------------------|
B|--5--4--5------------------------------------------------------------------|
G|-----------4~--------------------------------------------------------------|
D|------------------4--6--7-6--4---------------------------------------------|
A|---------------------------------------------------------------------------|
E|---------------------------------------------------------------------------|


| /  slide up
| \  slide down
| h  hammer-on
| p  pull-off
| ~  vibrato
| +  harmonic
| x  Mute note
===============================================================================
            
Submit corrections


        Dance Inside lessons Hard to play? Try these video lessons and learn fast Dance Inside lessons
        
↑ Back to top | Tablatures and chords for acoustic guitar and electric guitar, ukulele, drums are parodies/interpretations of the original songs. You may use it for private study, scholarship, research or language learning purposes only