» » »

The All American Rejects - Dance Inside Tabs

Artists:  A B C D E F G H I J K L M N O P Q R S T U V W X Y Z # 

Dance Inside Tabs

(ver. 5) Click to play this song!
The All American Rejects
 Rating:
4/5 (10 votes)

 Dance Inside lessons Tabs too difficult? Try these video lessons and learn fast
 
                -------------------------------------------------------------------------------
                             Dance Inside - All-American Rejects
-------------------------------------------------------------------------------



Tuning: Standard


Two guitars in this song. I'll place one after the other.
I have updated this tab.

Intro:

Lead:

e|------------------------------------------------------------------------------|
B|------------------------------------------------------------------------------|
G|-9-9-8-9-9----9-9-8-9-9----9-9-8-9-9----9-9-8-6-4-1--9-9-8-9-9---9-9-11-9-8-9-|
D|-----------9------------9------------9-------------------------9--------------|
A|------------------------------------------------------------------------------|
E|------------------------------------------------------------------------------|

e|---------------------------|
B|------------9--------------|
G|9-9-8-9-9-----9------------|
D|----------8-----11---------|
A|---------------------------|
E|---------------------------|

Rhythm (Acoustic/Clean)

e|------------------|
B|------------------|
G|4--2--4--9--8-----| Play this twice. You can figure out the strumming.
D|2--2--2--9--9-----|
A|4--0--2--9--9-----|
E|------------------|

Verse: First part just bass, then, after 'Eyes full striking...'

Lead:

e|-----------------------------------|
B|-----------------------------------|
G|9--8--9/13--11--13--14--13--11--9--|
D|-----------------------------------|
A-7--6--7-11--9---11--12--11--9---7--|
E|-----------------------------------|

Rhythm repeats intro once.
Verse One continued: No guitar, just bass.

Then comes the pre-chorus thingy (I'll be fine...etc)

Lead:

e|---------------------------------------------------------|
B|-----------------------------------4-2----2---2-4--------|
G|6--9-8--8-9-9S4----9-8--8-9--9S4-------4----4------------| 
D|6---------------7----------------------------------------|
A|4---------------7----------------------------------------|
E|----------------5----------------------------------------|


e|---------------------------------------------------------|
B|-----------------------------------4-2----5-4-2----------|
G|6--9-8--8-9-9S4----9-8--8-9--9S4-------4--------4--------| 
D|6---------------7----------------------------------------|
A|4---------------7----------------------------------------|
E|----------------5----------------------------------------|

Rhythm:

e|-----------------------------------|
B|-----------------------------------|
G|-6---------------------------------| x 2
D|-6------------7----------9---------|          
A|-4------------7----------9---------|
E|--------------5----------7---------|



First Chorus:

Lead:

e|------------------------------------|
B|------------------------------------|
G|9--8--9/13--11--13--14--13--11--9---| x 2
D|------------------------------------|
A|7--6--7-11--9---11--12--11--9---7---|
E|------------------------------------|

Rhythm plays intro, again Clean.

Then comes verse two:

Lead:

e|------------------|
B|------------------|
G|6-----9-9~--8-8~--| x 2 (Note: the first two notes there are played 8 times
D|6--7--x-x~--x-x~--|      each and they're palm mutes)
A|4--7--7-7~--6-6~--|
E|---5--------------|
  *  *
Rhythm:

e|--------------|
B|--------------|  x 2 (Note: first three notes played 8 times each, last two
G|6--------9--8-|       played only twice.)
D|6--7--9--9--8-|
A|4--7--9--7--6-|
E|---5--7-------|
  *  *  *  *  *

Then play the pre-chorus again (shown above).

Chorus Two: Basically the same as Chorus one, without the lead part. Both guitars play the same.


e|------------------|
B|------------------|
G|4--2--4--9--8-----| Play this twice. You can figure out the strumming.
D|2--2--2--9--9-----|
A|4--0--2--9--9-----|
E|------------------| 



Then comes a solo 

Lead:

e|----------------------------------------------------------------------------------------------------|
B|--------------------------------------------------------12------------------------------------------|
G|9--11--13--9--11--13--9--11--13--14--13---14--13--11\9------13\9------------------------------------|
D|x--x---x---x--x---x---x--x---x---x---x----------------------------11--13--14--11--13--14--11--9--7~-|
A|7--9---11--7--9---11--7--9---11--12--11-------------------------------------------------------------|
E|----------------------------------------------------------------------------------------------------|

e|5--4--2--4--5/7/9/11/--16^--16--14--16--12--12--11-----12--11--12--14--11--12--14--16--14--16--17--|
B|---------------------------------------------------12----------------------------------------------|
G|---------------------------------------------------------------------------------------------------|
D|---------------------------------------------------------------------------------------------------|
A|---------------------------------------------------------------------------------------------------|
E|---------------------------------------------------------------------------------------------------|

Rhythm:

Ok, for the first half just play the chorus. Then, on the 2nd half of the lead part, play this:

e|----------------|
B|----------------|
G|9--8--6--2--4---| x 2 You can figure out the strumming yourself, its easy.
D|9--8--6--2--4---|
A|7--6--4--0--2---|
E|----------------|


| /  slide up
| \  slide down
| h  hammer-on
| p  pull-off
| ~  vibrato
| +  harmonic
| x  Mute note
            
Submit corrections


        Dance Inside lessons Hard to play? Try these video lessons and learn fast Dance Inside lessons
        
↑ Back to top | Tablatures and chords for acoustic guitar and electric guitar, ukulele, drums are parodies/interpretations of the original songs. You may use it for private study, scholarship, research or language learning purposes only