Home » T » The All American Rejects »

The All American Rejects - Change Your Mind Tabs

Artists:  A B C D E F G H I J K L M N O P Q R S T U V W X Y Z # 

Change Your Mind Tabs

(ver. 2) Click to play this song!
The All American Rejects
 Rating:
4/5 (4 votes)
                Change Your Mind - All-American Rejects


Tuning: Standard

I'm not positive about the second part of guitar 1, it's pretty hard to hear in the
song, but it sounds right to me.  Comments are always welcome.  Enjoy.

GUITAR 1
e|--0---1-0-----1---3-1-----3---5-3-1-3-1-0-1-0-----3---5-3-----5---6-5-----6---8-6-8-10-8-10-12b--|
B|------------------------1---1-----------------1-3---3-----3-5---5-----5-6---6--------------------|
G|2---2-----2-3---3-----3--------------------------------------------------------------------------|
D|-------------------------------------------------------------------------------------------------|
A|-------------------------------------------------------------------------------------------------|
E|-------------------------------------------------------------------------------------------------|

GUITAR 2
e|--------------------------------------------------0---1-0-----1---3-1-----3---5-3-5-6-5-6-8~-----|
B|------------------------------------------------------------------------1---1--------------------|
G|------------------0-------0---2-0---0-----------2---2-----2-3---3-----3--------------------------|
D|--2---3-2-----3-----3-------------3---3-2-3-2----------------------------------------------------|
A|0---0-----0-1---1-----1-3---3-----------------3--------------------------------------------------|
E|-------------------------------------------------------------------------------------------------|

| /  slide up
| \  slide down
| h  hammer-on
| p  pull-off
| ~  vibrato
| +  harmonic
| x  Mute note
            
Submit corrections

↑ Back to top | Tablatures and chords for acoustic guitar and electric guitar, ukulele, drums are parodies/interpretations of the original songs. You may use it for private study, scholarship, research or language learning purposes only