» » »

The All American Rejects - Change Your Mind Tabs

Artists:  A B C D E F G H I J K L M N O P Q R S T U V W X Y Z # 

Change Your Mind Tabs

(ver. 3) Click to play this song!
The All American Rejects
 Rating:
4.3/5 (13 votes)

 Change Your Mind lessons Tabs too difficult? Try these video lessons and learn fast
 
                AAR

This song is pretty cool
The intro and some parts of the pre chorus may be a little off
OBVIOUSLY they dont use 5 guitars live
But w/ studio magic this prolly how they recorded it
Just learn all the parts and you can decide wht to cut out when playing live

Guitar 1 [D A D G B E] -Slightly Overdriven
Guitar 2 [E A D G B E]-Slightly Overdriven, mostly clean
Guitar 3 [E A D G B E]-Distorted
Guitar 4 [E A D G B E]-Distorted
Guitar 5 [E A D G B E]-Distorted

Intro: Guitar transcribed for orchestra or w.e instrument that is
E|-----3------3------3-------3--------3------3------3-------3-|
B|------------------------------------------------------------|
G|---5------5------5-------5--------5------5------5-------5---|
D|--5------5------5-------5-------5-------5------5-------5----|
A|-3------3---------------------0--------0--------------------|
D|--------------3-------3----------------------5------5-------| x3
   ***    ***   * **    * **    * * *    ***   * **   *  **

VERSE
Strum Pattern may be off
Guitar 2
    C          F        Am          G
E|-0-00-0-0---1-11-1-1---0-00-0-0---3-33-3-3-|
B|o1-11-1-1-0-1-11-1-1-0-1-11-1-1-0-3-33-3-3o|
G|-2-22-2-2-0-2-22-2-2-0-2-22-2-2-0-0-00-0-0-|
D|-0-00-0-0-0-3-33-3-3-0-2-22-2-2-0-0-00-0-0-|
A|o3-33-3-3---3-33-3-3---0-00-0-0---2-22-2-2o|
E|------------1-11-1-1--------------3-33-3-3-|

Pre-Chorus
E|---------------------------------------------------|
B|o---1~----1~-----1~o-------------------------------|
G|---0~----0~-----0~---------------------------------|
D|--2~----2~-----2~----------------------------------|
A|o3~-----------3~---o-------------------------------|
E|---------------------| Second Time around Guitar 3-|
                      E|-----------------------------|
                      B|-----------------------------|
                      G|-----------555555555---------|
                      D|-5555555555555555555-|
                      A|-3333333333333333333-|
                      E|---------------------|
                         **************
Chorus:
Guitar 3                                     "now..." "Change your mind"
E|----------------------|-------------------|--------|----------|
B|o--------------------o|-33333333----------|--------|----------|
G|----------0-333333333-|-22222222-55555555-|-3~--3~-|-3--3--3~-|
D|-33333333-0-333333333-|-00000000-55555555-|-3~--3~-|-3--3--3~-|
A|o33333333-0-111111111o|(00000000)33333333-|-1~--1~-|-1--1--1~-|
E|-11111111-------------|-------------------|--------|----------|
Guitar 4
E|-------------------|-------------------|--------|----------|
B|o-----------------o|-------------------|--------|----------|
G|-------------------|-77777777-55555555-|-3~--3~-|-3--3--3~-|
D|-33333333/88888888-|-77777777-55555555-|-3~--3~-|-3--3--3~-|
A|o33333333/88888888o|-55555555-33333333-|-1~--1~-|-1--1--1~-|
E|-11111111/66666666-|-------------------|--------|----------|

Verse 2:
Guitar 2
    C          F        Am          G
E|-0-00-0-0---1-11-1-1---0-00-0-0---3-33-3-3-|
B|o1-11-1-1-0-1-11-1-1-0-1-11-1-1-0-3-33-3-3o|
G|-2-22-2-2-0-2-22-2-2-0-2-22-2-2-0-0-00-0-0-|
D|-0-00-0-0-0-3-33-3-3-0-2-22-2-2-0-0-00-0-0-|
A|o3-33-3-3---3-33-3-3---0-00-0-0---2-22-2-2o|
E|------------1-11-1-1--------------3-33-3-3-|

Guitar 3 or 4 this is optional
E|--------------------------------------|
B|o------------------------------------o|
G|--------------------------------------|
D|-5555555------------------------------|
A|o3333333--3333333---7777777---5555555o|
E|--------0-1111111-0-5555555-0-3333333-|
   *******  *******   *******   *******

Repeat Pre Chorus

Repeat Chorus then do a pick slide

Solo: Guitar 3 and 4 harmonize, Guitar 5 plays chords
  A5          Bb          C5
E|--0---1-0-----1---3-1-----3---5-3-1-3-1-0-1-0---|
B|------------------------1---1-----------------1~|
G|2---2-----2-3---3-----3-------------------------|
D|------------------------------------------------|
A|------------------------------------------------|
E|------------------------------------------------|

E|------------------------------------------------|
B|------------------------------------------------|
G|------------------0-------0---2-0---0-----------|
D|--2---3-2-----3-----3-------------3---3-2-3-2---|
A|0---0-----0-1---1-----1-3---3-----------------3~|
E|------------------------------------------------|

  A5           Bb          C5
E|---3---5-3-----5---6-5-----6---8-6-8-10-8-10-12b--|
B|-3---3-----3-5---5-----5-6---6--------------------|
G|--------------------------------------------------|
D|--------------------------------------------------|
A|--------------------------------------------------|
E|--------------------------------------------------|

E|---0---1-0-----1---3-1-----3---5-3-5-6--5--6--8~--|
B|-------------------------1---1--------------------|
G|-2---2-----2-3---3-----3--------------------------|
D|--------------------------------------------------|
A|--------------------------------------------------|
E|--------------------------------------------------|

Bridge
Guitar 5 plays bridge, Guitars 3 and 4 are still holding the last notes of the solo      
              Guitars 3 and 4
E|---------------------|   E|-12/--Guitar 3-|
B|o-------------------o|   B|-13/--Guitar 4-|
G|------7777-5555-3333-|   G|-slide-down----|
D|-3333-7777-5555-3333-|   D|-----neck------|
A|o3333-5555-3333-1111o|   A|---------------|
E|-1111----------------|   E|---------------|

"Dont run away..."
E|-----------------|
B|-----------------|
G|-2222222---------|
D|-2222222-5555555-|
A|-0000000-5555555-|
E|---------3333333-|

Chorus                                                 after 2nd time
E|---------------------------------------------------| |----|
B|o-------------------------------------------------o| |----|
G|---------------------------------------------------| |-33-|
D|---------------------------------------------------| |-33-|
A|o-------------------------------------------------o| |-11-|
E|1-111-111-111-111-111-111/6-666-666-666-666-666-666| |----|
  * *** *** *** *** *** ***** *** *** *** *** *** ***

Repeat Chorus

"Dont run away"
Guitar 3                Guitar 4
E|--------------------|   Riff   |----------------------|
B|--------------------|          |-5-6-8-6-565656-5-6-8-|
G|-----7777-5555-3333-|          |-5-5-5-5-555555-5-5-5-|
D|3333-7777-5555-3333-|          |----------------------|
A|3333-5555-3333-1111-|          |----------------------|
E|1111----------------|X4        |----------------------|


"Change Your Mind"
E|---------|
B|---------|
G|-5-5-3~~-|
D|-5-5-3~~-|
A|-3-3-1~~-|
E|---------|

E|------|
B|-6-5~-|
G|-5-5~-|
D|-5-5~-|
A|-3-3~-|
E|------|
            
Submit corrections


        Change Your Mind lessons Hard to play? Try these video lessons and learn fast Change Your Mind lessons
        
↑ Back to top | Tablatures and chords for acoustic guitar and electric guitar, ukulele, drums are parodies/interpretations of the original songs. You may use it for private study, scholarship, research or language learning purposes only