» » »

The All American Rejects - Beekeepers Daughter Tabs

Artists:  A B C D E F G H I J K L M N O P Q R S T U V W X Y Z # 

Beekeepers Daughter Tabs

(ver. 1) Click to play this song!
The All American Rejects
 Rating:
3.7/5 (6 votes)

 Beekeepers Daughter lessons Tabs too difficult? Try these video lessons and learn fast
 
                 TUNING:STANDARD
 
 INTRO
|------------------------------------|
|-8--10-10----8--8----11-11-11-8--10-|
|-10-10-10----9--9----10-10-10-10-10-|
|-10-10-10----10-10---8--8--8--8--10-|
|------------------------------------|
|------------------------------------|

 
 VERSE
|-----------------------|
|-----------------------|
|-2-2---------7-7---7-7-|
|-3-3---7-7---8-8---8-8-| 4x 
|-3-3---7-7---8-8---8-8-|
|-1-1---5-5---6-6---6-6-|

 
 CHORUS 

 guitar 1
|--------------------------|
|--------------------------|
|------5-5--7-7------------|
|-3-3--5-5--7-7--8-8-8-8-8-|
|-3-3--3-3--5-5--8-8-8-8-8-|
|-1-1------------6-6-6-6-6-|

|---------------------|
|---------------------|
|------5-5------------|
|-3-3--5-5--8-8-8-5-3-|
|-3-3--3-3--8-8-8-5-3-|
|-1-1-------6-6-6-3-1-|

|--------------------------|
|--------------------------|
|------5-5--7-7------------|
|-3-3--5-5--7-7--8-8-8-8-8-|
|-3-3--3-3--5-5--8-8-8-8-8-|
|-1-1------------6-6-6-6-6-|

|---------------------|
|---------------------|
|------5-5------------|
|-3-3--5-5--8-8-8-5-3-|
|-3-3--3-3--8-8-8-5-3-|
|-1-1-------6-6-6-3-1-|

 guitar 2
|------------------------------8-6---|
|-10-10--8--8---10-10--------------6-|
|-10-10--9--9---10-10--10---7--------|
|-10-10--10-10--8--8---8-------------|
|------------------------------------|
|------------------------------------|

|------------------------------|
|-10-10--8--8---11-11-11-8--10-|
|-10-10--9--9---10-10-10-10-10-|
|-10-10--10-10--8--8--8--8--10-|
|------------------------------|
|------------------------------|

|------------------------------8-6---|
|-10-10--8--8---10-10--------------6-|
|-10-10--9--9---10-10--10---7--------|
|-10-10--10-10--8--8---8-------------|
|------------------------------------|
|------------------------------------|

|------------------------------|
|-10-10--8--8---11-11-11-8--10-|
|-10-10--9--9---10-10-10-10-10-|
|-10-10--10-10--8--8--8--8--10-|
|------------------------------|
|------------------------------|

 guitar 1
|-----------|
|-----------|
|-7-7-7---2-|
|-8-8-8-5-3-|
|-8-8-8-5-3-|
|-6-6-6-3-1-|


 VERSE
 
|-----------------------|
|-----------------------|
|-2-2---------7-7---7-7-|
|-3-3---7-7---8-8---8-8-| 4x 
|-3-3---7-7---8-8---8-8-|
|-1-1---5-5---6-6---6-6-|
 
 guitar 2
|----15----13-|
|-15----15----|
|-------------|
|-------------| 7x
|-------------|
|-------------|
  .     .(PM)
|------------------18p17p15----|
|---------------15----------18-|
|-12-10~-----------------------|
|------------------------------| 
|------------------------------|
|------------------------------|

|----15----13-|
|-15----15----|
|-------------|
|-------------| 7x
|-------------|
|-------------|
  .     .(PM)

|----13-15/17-|
|-15----------|
|-------------|
|-------------| 
|-------------|
|-------------|


 REPEAT CHORUS
 
 guitar 1
|-----------|
|-----------|
|-7-7-7---2-|
|-8-8-8-5-3-| 2x
|-8-8-8-5-3-|
|-6-6-6-3-1-|

 guitar 2
|----------------|
|-11-11-11-8--10-|
|-10-10-10-10-10-|
|-8--8--8--8--10-| 2x
|----------------|
|----------------|


 BRIDGE
 
 guitar 1
|---------------------------------|
|---------------------------------|
|-7-7-7-7-3-3-3-3---------2-2-2-2-|
|-7-7-7-7-3-3-3-3-3-3-3-3-2-2-2-2-| 2x
|-5-5-5-5-1-1-1-1-3-3-3-3-0-0-0-0-|
|-----------------1-1-1-1---------|

|---------------------------------|
|---------------------------------|
|-3-3-3-3-5-5-5-5---------7-7-7-7-|
|-3-3-3-3-5-5-5-5-3-3-3-3-7-7-7-7-|
|-1-1-1-1-3-3-3-3-3-3-3-3-5-5-5-5-|
|-----------------1-1-1-1---------|

|----------------------------------------------|
|----------------------------------------------|
|-3-3-3-3-5-5-5-5--7-7-7-7-6-6-6-6-5-5-5-5-4-4-|
|-3-3-3-3-5-5-5-5--7-7-7-7-7-7-7-7-5-5-5-5-5-5-|
|-1-1-1-1-3-3-3-3--5-5-5-5-4-4-4-4-3-3-3-3-2-2-|
|----------------------------------------------|
 
 guitar 2
|--------------|
|-10-8-10-10br-|
|--------------|
|--------------| 2x 
|--------------|
|--------------|

 SOLO

|--------------------------------------------------------|
|----------13--------------------------------------------|
|-12b14-------12-10--9--12-9---------------10--12b14r-10-|
|-----------------------------12p10--10h12---------------|
|--------------------------------------------------------|
|--------------------------------------------------------|

|----------------------------13-----------|
|-10h11p10h11-13----10h11b13----11b13r\10-|
|-----------------------------------------|
|-----------------------------------------|
|-----------------------------------------|
|-----------------------------------------|

|--------------------------------------------------------|
|-11-11h13p11\10h11p10----10-----------------------------|
|----------------------12----12-10----10-------10-12-10~-|
|----------------------------------12----10-12-----------|
|--------------------------------------------------------|
|--------------------------------------------------------|


CHORUS

 guitar 1
|---------------------------------|
|---------------------------------|
|---------5-5-5-5-7-7-7-7---------|
|-3-3-3-3-5-5-5-5-7-7-7-7-8-8-8-8-|
|-3-3-3-3-3-3-3-3-5-5-5-5-8-8-8-8-|
|-1-1-1-1-----------------6-6-6-6-|

|---------------------------|
|---------------------------|
|---------5-5-5-5-----------|
|-3-3-3-3-5-5-5-5-8-8-8-5-3-|
|-3-3-3-3-3-3-3-3-8-8-8-5-3-|
|-1-1-1-1---------6-6-6-3-1-|

|---------------------------------|
|---------------------------------|
|---------5-5-5-5-7-7-7-7---------|
|-3-3-3-3-5-5-5-5-7-7-7-7-8-8-8-8-|
|-3-3-3-3-3-3-3-3-5-5-5-5-8-8-8-8-|
|-1-1-1-1-----------------6-6-6-6-|

|---------------------------|
|---------------------------|
|---------5-5-5-5-----------|
|-3-3-3-3-5-5-5-5-8-8-8-5-3-|
|-3-3-3-3-3-3-3-3-8-8-8-5-3-|
|-1-1-1-1---------6-6-6-3-1-|

|-----------|
|-----------|
|-----------|
|-8-8-8-5-3-| 2x
|-8-8-8-5-3-|
|-6-6-6-3-1-|

 guitar 2  (different strumming pattern from the 1st chorus)
|------------------------------|
|-10-10--8--8---11-11-11-8--10-|
|-10-10--9--9---10-10-10-10-10-|
|-10-10--10-10--8--8--8--8--10-|
|------------------------------|
|------------------------------|

|-------------------------|
|-10-10--8--8---10-10-----|
|-10-10--9--9---10-10--10-|
|-10-10--10-10--8--8---8--|
|-------------------------|
|-------------------------|

|------------------------------|
|-10-10--8--8---11-11-11-8--10-|
|-10-10--9--9---10-10-10-10-10-|
|-10-10--10-10--8--8--8--8--10-|
|------------------------------|
|------------------------------|

|----------------|
|-11-11-11-8--10-|
|-10-10-10-10-10-|
|-8--8--8--8--10-| 2x
|----------------|
|----------------|

|------------|
|-11--11--10-|
|-10--10--10-|
|-8---8---10-|
|------------|
|------------|
            
Submit corrections


        Beekeepers Daughter lessons Hard to play? Try these video lessons and learn fast Beekeepers Daughter lessons
        
↑ Back to top | Tablatures and chords for acoustic guitar and electric guitar, ukulele, drums are parodies/interpretations of the original songs. You may use it for private study, scholarship, research or language learning purposes only