» » »

The All American Rejects - Another Heart Calls Tabs

Artists:  A B C D E F G H I J K L M N O P Q R S T U V W X Y Z # 

Another Heart Calls Tabs

(ver. 4) Click to play this song!
The All American Rejects
 Rating:
4.8/5 (18 votes)

 Another Heart Calls lessons Tabs too difficult? Try these video lessons and learn fast
 
                Another Heart Calls - All American Rejects

Acoustic guitar parts

This is my 1st tab! so tell me wat u think! =P

Standard Tuning - EADGBe

intro
e------------------------|
B------------------------|
G----2----0---0----------|
D--0---3----3--2-3-2-0---|   x2
A------------------------|
E------------------------|

then theres a few little guitar licks while they sing, there somethin like this.

e------------------------------------------------|
B------------------------------------------------|
G----------1/2-----0h2p0----------0------0-------|
D-------------------------3-2-0-------2----3-2-0-|
A---3/5-------------------------3---3---3--------|
E------------------------------------------------|


-Repeat intro x1-

Then you play the last part of the guitar licks i tabbed out again:
e--------------------|
B--------------------|
G----0------0--------|
D--------2----3-2-0--|   x2
A--3---3---3---------|
E--------------------|

"Just as soon as I see you Didn't I, didn't I tell you"

e--------------------------------------------|
B--------------------------------------------|
G---555---555--55---3-3------555---555-55555-|
D-3-333-2-222--55h7p5p3----3-333-2-222-55555-|
A--------------3333-3-3----------------33333-|
E--------------------------------------------|
            
Submit corrections


        Another Heart Calls lessons Hard to play? Try these video lessons and learn fast Another Heart Calls lessons
        
↑ Back to top | Tablatures and chords for acoustic guitar and electric guitar, ukulele, drums are parodies/interpretations of the original songs. You may use it for private study, scholarship, research or language learning purposes only