» » »

The All American Rejects - Another Heart Calls Tabs

Artists:  A B C D E F G H I J K L M N O P Q R S T U V W X Y Z # 

Another Heart Calls Tabs

(ver. 3) Click to play this song!
The All American Rejects
 Rating:
4/5 (6 votes)

 Another Heart Calls lessons Tabs too difficult? Try these video lessons and learn fast
 
                -----------------------------------------------------------------------------
             Another Heart Calls - The All-American Rejects
-------------------------------------------------------------------------------
                       I'm not really sure if it's accurate but you know I just gave it 
try.It's my first tab btw.
Tuning:Standard

Intro
e|---------------------------------------------------------------------------|
B|---------------------------------------------------------------------------|
G|---------------------------------------------------------------------------|
D|-------7-------5--------5--------------7-------5-------5-------------------|
A|--5--------8-------8---------7-8-7--5------8-------8------7-8-7-3/5--------|
E|---------------------------------------------------------------------------|
  00:25       00:32 (Verse 1)
e|----------|-----------------------------------------------------------------|
B|----------|-----------------------------------------------------------------|
G|----------|-----------------------------------------------------------------|
D|-3/5------|------2------2------5--3-2----------7-------5-----5--------------|
A|----------|---3------2------3-------------5--------8------8----7-8-7-5------|
E|----------|-----------------------------------------------------------------|
    00:46
e|------------------------|---------------------------------------------------|
B|------------------------|---------------------------------------------------|
G|------------------------|---------------------------------------------------|
D|-----2-----2-----5--3-2-|--x2-----------------------------------------------|
A|--3-----2-----3---------|---------------------------------------------------|
E|------------------------|---------------------------------------------------|
  Pre-Chorus (palm muted) Just as soon as...
e|--------------------------|-------|
B|--------------------------|-------|
G|--------------------------|-------|
D|--7777--------55555555----|---x2--|
A|--5555--3333--33333333----|-------|
E|--------1111--------------|-------|
 Chorus 1   e|----------------------|
B|----------------------------------|
G|-----------nothing----------------|
D|----------------------------------|
A|----------------------------------|
E|----------------------------------|
  Part After The 1st Chorus
e|---------0h1--------3h5---------------------------------------------------|
B|--1/3----------3/5---------------5h3----------7-5-----5/6-----------------|
G|---------------------------3/5----------5/7--------7----------------------|
D|--------------------------------------------------------------------------|
A|--------------------------------------------------------------------------|
E|--------------------------------------------------------------------------|
  Verse 2 (palm muted)
e|--------------------------------------|-------------------------------------|
B|--------------------------------------|-------------------------------------|
G|--------------------------------------|-------------------------------------|
D|--7777-77-----------5555-55-5555-55---|---x3--------------------------------|
A|--5555-55--3333-33--3333-33-3333-33---|-------------------------------------|
E|-----------1111-11--------------------|-------------------------------------|

Chorus(strumming may be different in the ohohohoh lalalala...part)
e|------------------------------|-----------------------------------------------|
B|------------------------------|-----------------------------------------------|
G|-7--------------------5-------|-----------------------------------------------|
D|-7--x4---8------3-----5--x4---|--x6-------------------------------------------|
A|-5-------8--x4--3x4--3-------|------------------------------------------------|
E|---------6------1-------------|-----------------------------------------------|
 Bridge (every powerchord x 4)
e|---------------------------------------------------------------------------|
B|---------------------------------------------------------------------------|
G|-------------7-----5------------5------------------------------------------|
D|--5----3-----7-----5----5---3---5------------------------------------------|
A|--5----3-----5-----3----5---3---3------------------------------------------|
E|--3----1----------------3---1----------------------------------------------|

-Intro
-Verse 1
-Pre Chorus
-Chorus
-Verse 2
-Pre-Chorus
-Chorus
-Bridge
-Pre-Chorus
-Chorus

===============================================================================
            
Submit corrections


        Another Heart Calls lessons Hard to play? Try these video lessons and learn fast Another Heart Calls lessons
        
↑ Back to top | Tablatures and chords for acoustic guitar and electric guitar, ukulele, drums are parodies/interpretations of the original songs. You may use it for private study, scholarship, research or language learning purposes only