Home » T » The Album Leaf »

The Album Leaf - Story Board Tabs

Artists:  A B C D E F G H I J K L M N O P Q R S T U V W X Y Z # 

Story Board Tabs

(ver. 1) Click to play this song!
The Album Leaf

Part A

E|---------------------0------------------------0-|
B|----0----------0------------0-----------0-------|
G|----------2-----------------------2-------------|
D|----2----------2------------2-----------2-------|
A|-0-----0----0-----0------0-----0-----0-----0----|
D|------------------------------------------------|
                                                    \
                                                     X4
                                                    /
E|------------------------------------------------|
B|----2----------2------------2-----------2-------|
G|----------2----------2-------------2----------2-|
D|----4----------4------------4-----------4-------|
A|-0-----0----0-----0------0-----0-----0-----0----|
D|------------------------------------------------|

Part B
                       Part B1
E|-----------------------------------------------|
B|----2---------2-----------2-----------2--------|
G|--------2----------2-----------2-----------2---|
D|----0---------0-----------0-----------0--------|
A|-----------------------------------------------|
D|-0----0----0-----0-----0-----0-----0-----0-----|

         B2                        B3
E|-----------------------|------------------------|
B|-----2----------2------|-----0-----------0------|
G|---------2-----------2-|----------2-----------2-|
D|-----4----------4------|-----2-----------2------|
A|-----------------------|------------------------|
D|--4-----4-----4-----4--|--2-----2-----2-----2---|


E|-----------------------------------------------|
B|----2---------2-----------2-----------2--------|
G|--------2----------2-----------2-----------2---|
D|----0---------0-----------0-----------0--------|
A|-----------------------------------------------|
D|-0----0----0-----0-----0-----0-----0-----0-----|


                                    B4
E|-----------------------|--------------------------|
B|-----2----------2------|------5------------5------|
G|---------2-----------2-|--------------------------|
D|-----4----------4------|------------7-----------7-|
A|-----------------------|------0------------0------|
D|--4-----4-----4-----4--|--/7-----7------7-----7---|

    B5
|---------|
|---------|
|---------|
|---------|
|---------|
|-7/9\4---|



Tab Order:

Part A X4
All of Part B X2
Part A X4
All of Part B X2 (With some variations: B5 ect.)

(When the Synth comes in)

B2 X1
B3 X1
1/2 of B1 X1
B4 X2
B5 X1


That's basically the whole song, there is some variations that I didn't add in, but they 
be easy to figure out.
            
Submit corrections

↑ Back to top | Tablatures and chords for acoustic guitar and electric guitar, ukulele, drums are parodies/interpretations of the original songs. You may use it for private study, scholarship, research or language learning purposes only