» » »

Test Icicles - Circle Square Triangle Tabs

Artists:  A B C D E F G H I J K L M N O P Q R S T U V W X Y Z # 

Circle Square Triangle Tabs

(ver. 3) Click to play this song!
Test Icicles
 Rating:
4/5 (9 votes)

 Circle Square Triangle lessons Tabs too difficult? Try these video lessons and learn fast
 
                e|-9-9-9-9-9-9-9-9--9--9--9--9--9--9--9--9---------------------------------|
B|-9-9-9-9-9-9-9-9-10-10-10-10-10-10-10-10---------------------------------|
G|-------------------------------------------------------------------------|
D|-------------------------------------------------------------------------|
A|-------------------------------------------------------------------------|
E|-------------------------------------------------------------------------|

e|-9-99-9-99--9--9--9--9--9--9---------------------------------------------|
B|-9129-9129-10-10-10-10-10-10---------------------------------------------|
G|-------------------------------------------------------------------------|
D|-------------------------------------------------------------------------|
A|-------------------------------------------------------------------------|
E|-------------------------------------------------------------------------|
            
Submit corrections


        Circle Square Triangle lessons Hard to play? Try these video lessons and learn fast Circle Square Triangle lessons
        
↑ Back to top | Tablatures and chords for acoustic guitar and electric guitar, ukulele, drums are parodies/interpretations of the original songs. You may use it for private study, scholarship, research or language learning purposes only