» » »

Tenacious D - Metal Tabs

Artists:  A B C D E F G H I J K L M N O P Q R S T U V W X Y Z # 

Metal Tabs

(ver. 3) Click to play this song!
Tenacious D
 Rating:
4/5 (4 votes)
                "(2)
I noticed that the tabs so far just gave the chords for the interlude,
the pattern is called "Travis Picking" and is quite is to grasp, just
change the chord and continue the patten.
KG uses very many variations so just use this as a basis.

      Emin.           Dmaj.           Cmaj.
e||---7---------------5--------5------3-------3---||  |-------------|
B||----------8-------------7--------------5-------||  |-------------|
G||-------9--------------7------7-------5-------5-||  |-------------|
D||-----9-------9-----7-----7---------5-----5-----||  |--4-2-0-2----|
A||---7-----7-------------------------------------||  |--5-3-2-3----|
E||-----------------------------------------------||  |-------------|
  No one can destroy the metal...            x2               x1

      Cmaj.               Bmin.              Emin.                 
e||-------------------------------------| |------------------||
B||o--8-----------8-------7--------7----| |--8--------8-----o||
G||----------9-----------------7--------| |-------9----------||  
D||-------10-------10--------9-------9--| |-----9------------||
A||o--10-------10---------9------9------| |--7------7----9--o||
E||-------------------------------------| |------------------||
  We are the vanquished foes of...

    Emin.
e|----------------<12>--|||
B|--0-------0-----------|||
G|-------------0--------|||
D|------2---------------|||
A|----2-----------------|||
E|--0-----0-------------|||
  for why we do not know...
"            
Submit corrections

↑ Back to top | Tablatures and chords for acoustic guitar and electric guitar, ukulele, drums are parodies/interpretations of the original songs. You may use it for private study, scholarship, research or language learning purposes only