» » »

Tenacious D - Kielbasa Tabs

Artists:  A B C D E F G H I J K L M N O P Q R S T U V W X Y Z # 

Kielbasa Tabs

(ver. 2) Click to play this song!
Tenacious D
 Rating:
4/5 (4 votes)

 Kielbasa lessons Tabs too difficult? Try these video lessons and learn fast
 
                “Kielbasa”
Tenacious D

The first version of this song had alot of things right but needed some correction
p- pull on		s- slide

Dude, we gotta f**kin write somethin new c’mon.....(D chord)
I dont like that so far off to a bad start..... (C Chord)
Better, closer, warmer, (A chord)  Thats it....

Verse
 G		   F        C		G		  F      C
------3-0-3-0----0-2-0-----------------------3-0-3-0---0-2-0-----------------------------------------
---------------------------3-2-0--0p2-0--------------------------3-2----------------------------------
-3-3----------------------------------------3-3-------------------------------------------------------


G		   F        C		G 		   F    C
------3-0-3-0---0-2-0-------------------------------------2-0---------------------------------------
--------------------------3-2-0--0p2-0-------------------------3-2-------------------------------------
----------------------------------------------2-3-2-0-2-----------------------------------------------
-3-3---------------------------------------3------------3-0------------------------------------------


Chorus
G	  F             C	G		F	C
-6------------------------------------------------------------------------------------------
-8--------8s10-8-6-5--5p6-8-6-5-6-5-----5p6-5----------------------------------
-7-------------------------------------7-----7-5--------7-5-----------------------------
-8------------------------------------------------------------------------------------------

Ending
						All the ladies in the house say “yeah”......
-3-----------3---------1--------0----------------------------------------------------------------------------
-3-----------3---------1--------1----------------------------------------------------------------------------
-0-----------0---------2--------0----------------------------------------------------------------------------
-0-----------2---------3--------2----------------------------------------------------------------------------
-2-----------3-------------------3--------------------------------------------------------------------------
-3--------------------------------------------------------------------------------------------------------
You know what time it is? 
Tenacious D time ya mutha f**ka GO!!			f**k yeah
---------------0---------------------------------1----------------------------------------------------
---------------0---------------------------------1-----------------------------------------------------
---------------0---------------------------------2-----------------------------5---4----------4-----------
---------------2---------------------------------3-----------------------------4---4----2----3------------
---------------2---------------------------------3-----------------------------4---3----2----3------------
---------------0---------------------------------1-----------------------------3---------0----1-----------
            
Submit corrections


        Kielbasa lessons Hard to play? Try these video lessons and learn fast Kielbasa lessons
        
↑ Back to top | Tablatures and chords for acoustic guitar and electric guitar, ukulele, drums are parodies/interpretations of the original songs. You may use it for private study, scholarship, research or language learning purposes only