» » »

Tenacious D - Break In City Storm The Gate Tabs

Artists:  A B C D E F G H I J K L M N O P Q R S T U V W X Y Z # 

Break In City Storm The Gate Tabs

(ver. 1) Click to play this song!
Tenacious D
 Rating:
3.4/5 (11 votes)


 Break In City Storm The Gate lessons Tabs too difficult? Try these video lessons and learn fast
 
                
Tuning: Standard

This is 100% correct, the other tab on this site was not 100 complete and had some 
Also the other tab was made for two guitars this is just for one (which i i think sounds 
anyway)

e|-----------------------------------------------------------------------------|
B|-----------------------------------------------------------------------------|
G|-----------------------------------------------------------------------------|
D|---2--2--0--2--0--3--5b--5/--------------------------------------------------|
A|---2--2--0--2--0--3--5b--5/--------------------------------------------------|
E|---0--0-----0-----0----------------------------------------------------------|


e|---------------------------------------------------------------------------|
B|---------------------------------------------------------------------------|
G|---------------------------------------------------------------------x2----|
D|---2222222222-----5\7---7\8/7---5\7-----222222222---5\7--7\8/7--5\7--------|
A|---2222222222-----5\7---7\8/7---5\7-----222222222---5\7--7\8/7--5\7--------|
E|---0000000000---------------------------000000000--------------------------|

e|---------------------------------------------------------------------------|
B|---------------------------------------------------------------------------|
G|-------------------------------7-99----------------------------------------|
D|--8\9999999--8\9999999---8-7-5-7-99----------------------------------------|
A|--8\9999999--8\9999999---8-7-5-5-77----------------------------------------|
E|--6\7777777--6\7777777---6-5-3---------------------------------------------|

e|------------------------------------------------------------------------------|
B|------------------------------------------------------------------------------|
G|---------------------5555555--88888888--999999999--888--999999999--888--------|
D|--5555555--88888888--5555555--88888888--999999999--888--999999999--888--------|
A|--5555555--88888888--3333333--66666666--777777777--666--777777777--666--------|
E|--3333333--66666666-----------------------------------------------------------|

e|---------------------------------------------------------------------------|
B|---------------------------------------------------------------------------|
G|--999999999--888--999999999--888-------------------------------------------|
D|--999999999--888--999999999--888-------------------------------------------|
A|--777777777--666--777777777--666-------------------------------------------|
E|---------------------------------------------------------------------------|

e|---------------------------------------------------------------------------|
B|---------------------------------------------------------------------------|
G|-------------------------------7-99----------------------------------------|
D|--8\9999999--8\9999999---8-7-5-7-99----------------------------------------|
A|--8\9999999--8\9999999---8-7-5-5-77----------------------------------------|
E|--6\7777777--6\7777777---6-5-3---------------------------------------------|


e|---------------------------------------------------------------------------|
B|---------------------------------------------------------------------------|
G|-----------------7h9p7-7h9p7--9h12p9-9h12p9--12h14p12-12h15p12-12h14p12----|
D|-7h10p7--7h10p7------------------------------------------------------------|
A|---------------------------------------------------------------------------|
E|---------------------------------------------------------------------------|

e|-----------------------------------------------------------------------------|
B|-----------------------------------------------------------------------------|
G|-12h15p12--12h14p12---12-14-14b-12-------------------------------------------|
D|----------------------------------14-----------------------------------------|
A|-----------------------------------------------------------------------------|
E|-----------------------------------------------------------------------------|


e|---------------------------------------------------------------------------|
B|---------------------------------------------------------------------------|
G|---------------------5555555--88888888-------------------------------------|
D|--5555555--88888888--5555555--88888888-------------------------------------|
A|--5555555--88888888--3333333--66666666-------------------------------------|
E|--3333333--66666666--------------------------------------------------------|

(Palm Muted)
e|-----------------------------------------------------------------------------|
B|-----------------------------------------------------------------------------|
G|-----------------------------------------------------------------------------|
D|-----------------------------------------------------------------------------|
A|-------------------------------------------x2--------------------------------|
E|--000000000--3536535----000000000--3536535-----------------------------------|

e|------------------------------------------------------------------------------|
B|------------------------------------------------------------------------------|
G|---------------------5555555--88888888--999999999--888--999999999--888--------|
D|--5555555--88888888--5555555--88888888--999999999--888--999999999--888--------|
A|--5555555--88888888--3333333--66666666--777777777--666--777777777--666--------|
E|--3333333--66666666-----------------------------------------------------------|

e|-----------------------------------------------------------------------------|
B|-----------------------------------------------------------------------------|
G|--999999999-------999999999--------------------------------------------------|
D|--999999999-------999999999--------------------------------------------------|
A|--777777777-------777777777--------------------------------------------------|
E|-----------------------------------------------------------------------------|


Pretty Sure this is 100% correct... the other tab on this site is a bit hard to 
and some of it was wrong so I straightened it out for you.
            
Submit corrections



        Break In City Storm The Gate lessons Hard to play? Try these video lessons and learn fast Break In City Storm The Gate lessons
        
↑ Back to top | Tablatures and chords for acoustic guitar and electric guitar, ukulele, drums are parodies/interpretations of the original songs. You may use it for private study, scholarship, research or language learning purposes only