Home » T » Temptations »

Temptations - Stand By Me Bass

Artists:  A B C D E F G H I J K L M N O P Q R S T U V W X Y Z # 

Stand By Me Bass

(ver. 3) Click to play this song!
Temptations
TEMPTATIONS -  STAND BY ME

Tuning STANDAR (E,A,D,G)



I found 2 ways of playing the song


1st Way (I Liked More)

------|--------|----------|-------|---------|---------|---------|---------
--7-7-|--6-7-7-|-6-7--4-4-|-2-4-4-|-4-2-0-0-|-0-1-2-2-|---6-7-7-|---6-7-7-
------|-7------|----------|-------|---------|---------|-7-------|-7-------
------|--------|----------|-------|---------|---------|---------|---------

2nd Way 

------|--------|----------|-------|---------|---------|---------|---------
--7-7-|--6-7-7-|-6-7--4-4-|-2-4-4-|-4-2-----|-5-6-7-7-|---6-7-7-|---6-7-7-
------|-7------|----------|-------|-----5-5-|---------|-7-------|-7-------
------|--------|----------|-------|---------|---------|---------|---------


My first TAB so plz rate it out.
Really Easy Song, Listen it is not hard to figure it out.
            
Submit corrections

↑ Back to top | Tablatures and chords for acoustic guitar and electric guitar, ukulele, drums are parodies/interpretations of the original songs. You may use it for private study, scholarship, research or language learning purposes only