» » »

Taproot - Poem Bass

Artists:  A B C D E F G H I J K L M N O P Q R S T U V W X Y Z # 

Poem Bass

(ver. 1) Click to play this song!
Taproot
 Rating:
4/5 (4 votes)


 Poem lessons Tabs too difficult? Try these video lessons and learn fast
 
                (5String)
Intro (0:09):
F|---------------------|
C|---------------------|
G|---------------------|    4x
D|---------------------|
A|0h2-2-2--0h2-2-2--0-3|

Verse (0:20):
F|-----------------------|
C|-----------------------|
G|-----------------------|     3x
D|7h9-9-9--7h9-9-9--10-10|
A|-----------------------|

Verse, last time (0:27):
F|---------------------|
C|---------------------|
G|---------------------|     1x
D|7h9-9-9--7h9-9-9-----|
A|------------------0h3|

Pre-chorus (0:30):
F|---------------------|
C|---------------------|
G|---------------------|     4x
D|---------------------|
A|0h2-2-2--0h2-2-2--0-3|


                    
Chorus (0:39):      2x                     1st Ending     
F|------------------------------------|-------------------|
C|--6-----7------9-----9-----6-----7--|-------------------|
G|4-----7---7--7-----9---9-4-----7---7|-------------------| 
D|----5------------7-----------5------|5h7-7-7-5h7-7-7—8-8|
A|------------------------------------|-------------------|

2nd Ending (0:54)
F|----------------------------------|
C|--------------------------------|
G|--------------------------------|    1x
D|5h7\------5h7\---10-10-7-9-10-10|
A|--------------------------------|
   Do the slides slowly

Verse (0:59)
F|-----------------------|
C|-----------------------|
G|-----------------------|     3x
D|7h9-9-9--7h9-9-9--10-10|
A|-----------------------|

Verse, last time (1:06)
F|---------------------|
C|---------------------|
G|---------------------|     1x
D|7h9-9-9--7h9-9-9-----|
A|------------------0h3|

Pre-chorus (1:08)
F|---------------------|
C|---------------------|
G|---------------------|     4x
D|---------------------|
A|0h2-2-2--0h2-2-2--0-3|

Chorus (1:17):                       4x
F|------------------------------------|-------------------|
C|--6-----7------9-----9-----6-----7--|-------------------|
G|4-----7---7--7-----9---9-4-----7---7|-------------------|
D|----5------------7-----------5------|5h7-7-7-5h7-7-7—8-8|
A|------------------------------------|-------------------|

Fill (1:54):
F|-------------------|
C|-------------------|
G|-------------------|    1x
D|5h7-7-7-5h7-7-7----|
A|----------------0-3|

Bridge (1:56):
F|-------|
C|-------|
G|-------|    3x (time signature change)
D|-------|
A|0h2-2-2|

Breakdown (2:01):
F|---------------------|
C|---------------------|
G|---------------------|     6x (back to regular time)
D|---------------------|
A|0h2-2-2--0h2-2-2--0-3|

Post-Bridge, or whatever you wanna call it(2:15):
F|-------|
C|-------|
G|-------|    3x (time signature change, again)
D|-------|
A|0h2-2-2|

Fill 2 (2:21):
F|--------|
C|--------|
G|--------|    1x
D|7h9-9-9\|
A|--------|
  Slide slowly again

Chorus, come in the second time half way through (2:34):
F|-----------------------|-------------------|
C|--9-----9-----6-----7--|-------------------|
G|7-----9---9-4-----7---7|-------------------|    1x
D|----7-----------5------|5h7-7-7-5h7-7-7—8-8|
A|-----------------------|-------------------|

Back to the Regular Chorus (2:40):     2x
F|------------------------------------|-------------------|
C|--6-----7------9-----9-----6-----7--|-------------------|
G|4-----7---7--7-----9---9-4-----7---7|-------------------|
D|----5------------7-----------5------|5h7-7-7-5h7-7-7—8-8|
A|------------------------------------|-------------------|

Ending (2:59):
F| ------------------- |---------|
C|.-------------------.|---------|
G| ------------------- |---------|
D|.5h7-7-7-5h7-7-7-8-8.|9-9-9-9\-|
A| ------------------- |---------|
           2x

Thanks for reading my tab, I put a lot of effort into it, I hope you like it.  This is a great song, one of Taproot’s best.
            
Submit corrections



        Poem lessons Hard to play? Try these video lessons and learn fast Poem lessons
        
↑ Back to top | Tablatures and chords for acoustic guitar and electric guitar, ukulele, drums are parodies/interpretations of the original songs. You may use it for private study, scholarship, research or language learning purposes only