» » »

Taj Mahal - Queen Bee Tabs

Artists:  A B C D E F G H I J K L M N O P Q R S T U V W X Y Z # 

Queen Bee Tabs

(ver. 1) Click to play this song!
Taj Mahal
 Rating:
4/5 (5 votes)

 Queen Bee lessons Tabs too difficult? Try these video lessons and learn fast
 
                ----------------------------------------------------------------------------
                             "Queen Bee" - Taj Mahal
----------------------------------------------------------------------------

Tuning: Standard


Intro-  
        Ab                 Gm               Gm                  Ab
e|---6-------------|----------------|------3-1----------|------------------|
B|--6---8----6h8---|----------------|-----------1h3-----|------------------|
G|-----------------|-5-7----3-------|----3--------------|-3----------------|
D|-----------------|----------------|-------------------|------------------|
A|-----------------|----------------|-------------------|------------------|
E|-----------------|----------------|-------------------|------------------|

        Ab                 Gm               Gm                  Ab
e|---6-------------|----------------|------3-1----------|------------------|
B|--6---8----6h8---|----------------|-----------1/3-----|------------------|
G|-----------------|-5h7------------|----3--------------|-3----------------|
D|-----------------|----------------|-------------------|------------------|
A|-----------------|----------------|-------------------|------------------|
E|-----------------|----------------|-------------------|------------------|

       Gm (10fr)          Ab               Gm (10fr)             Ab
e|-----------------|----------------|----------3--------|------------------|
B|---3---3---3-----|--3-------------|---3----------3----|------------------|
G|-3----3------3---|----3-----------|--3----------------|-3---3-------3----|
D|-----------------|----------------|-------------------|------------------|
A|-----------------|----------------|-------------------|------------------|
E|-----------------|----------------|-------------------|------------------|

       Gm (10fr)          Ab               Gm (10fr)             Ab
e|-----------------|----------------|----------3--------|------------------|
B|---3---3---3-----|--3-------------|---3----------3----|------------------|
G|-3----3------3---|----3-----------|--3----------------|--------3---------|
D|-----------------|----------------|-------------------|------------------|
A|-----------------|----------------|-------------------|------------------|
E|-----------------|----------------|-------------------|------------------|

        Ab               Ab                 Ab                  Ab
e|-----------------|----------------|-------------------|------------------|
B|-----------3-----|----------------|-----------1-3-----|------------------|
G|---------3-------|-----3----3-----|---------3-----3---|---------3--3-----|
D|-----------------|----------------|-------------------|-3----------------|
A|-----------------|----------------|-------------------|------------------|
E|-----------------|----------------|-------------------|------------------|

        Ab                Ab                Ab
e|-----------------|----------------|--------6----------|
B|-------------3---|----------------|--------6----------|
G|-----------3-----|-----3-----3----|--------7----------|
D|-----------------|----------------|--------8----------|
A|-----------------|----------------|--------8----------|
E|-----------------|----------------|--------6----------|
            
Submit corrections


        Queen Bee lessons Hard to play? Try these video lessons and learn fast Queen Bee lessons
        
↑ Back to top | Tablatures and chords for acoustic guitar and electric guitar, ukulele, drums are parodies/interpretations of the original songs. You may use it for private study, scholarship, research or language learning purposes only