» » »

System Of A Down - Drugs Tabs

Artists:  A B C D E F G H I J K L M N O P Q R S T U V W X Y Z # 

Drugs Tabs

(ver. 2) Click to play this song!
System Of A Down
 Rating:
4/5 (4 votes)

 Drugs lessons Tabs too difficult? Try these video lessons and learn fast
 
                GUITAR TUNING: Drop D, then down one whole step.
(Low to High) CGCFAD

TIME SIG: 4/4
BPM: ~70



CHORDS:  C   A#

PART 1:

  C...........A#..
D|--------------0-|
A|3---3---3-----1-|
F|2---2---2---0-0-| Repeat
C|0---0---0---2---|
G|------------3---|
C|----------------|
  1 + 2 + 3 + 4 +

PART 2:

  C........................A#......
D|----------------|----------------|
A|3---3---3---3---|3---3---1---1---|
F|2---2---2---2---|2---2---0---0---| Repeat
C|0---0---0---0---|0---0---2---2---|
G|----------------|--------3---3---|
C|----------------|----------------|
  1   2   3   4    1   2   3   4


I think this is how he plays it live. Alot better than the other tabs.
            
Submit corrections


        Drugs lessons Hard to play? Try these video lessons and learn fast Drugs lessons
        
↑ Back to top | Tablatures and chords for acoustic guitar and electric guitar, ukulele, drums are parodies/interpretations of the original songs. You may use it for private study, scholarship, research or language learning purposes only