» » »

System Of A Down - D Devil Tabs

Artists:  A B C D E F G H I J K L M N O P Q R S T U V W X Y Z # 

D Devil Tabs

(ver. 3) Click to play this song!
System Of A Down
 Rating:
4/5 (4 votes)

 D Devil lessons Tabs too difficult? Try these video lessons and learn fast
 
                Group - System Of A Down
Album - System Of A Down
Song - Ddevil

Tuning - Drop D down a whole step

Main Riff 
|------------------
|------------------
|------------------
|------------------
|-4-6-4-5-4-6-44-5-
|-4-6-4-5-4-6-44-5-

Verse                Fill-In
|-------------------|------------
|-------------------|------------
|-------------------|------------
|-------------------|----8-7-----
|-------------------|-8-7---8-7--
|-7-87-87-87-87-----|------------
p.m.................

Chorus
|------------------------------------
|------------------------------------
|------------------------------------
|-5--4--6--5--4-6-4-5--4-6-44-5--6-5-
|-5--4--6--5--4-6-4-5--4-6-44-5--6-5-
|-5--4--6--5--4-6-4-5--4-6-44-5--6-5-
Interlude
|--------------------------------------
|--------------------------------------
|--------------------------------------
|-4-6-4-5--4-6-44-5--4-6-4-5--4-6-44-5    Repeat 2x
|--------------------4-6-4-5--4-6-44-5
|--------------------4-6-4-5--4-6-44-5

|-----------------------------------------------------------------
|-----------------------------------------------------------------
|-----------------------------------------------------------------
|4-6-4-5-4-6-44-5-4-6-4-5-4-6-44-5-4-6-4-5-4-6-4-5-4-6-4-5-4-6-4-5
|--------4-6-44-5---------4-6-44-5--------------------------------
|--------4-6-44-5---------4-6-44-5--------------------------------

Repeat the verse and chorus and then:
|------------------
|------------------
|------------------
|-4-6-4-5--4-6-44-5   Repeat 4x
|-4-6-4-5--4-6-44-5
|-4-6-4-5--4-6-44-5

Outro
|---------
|---------
|---------
|-4-6-44-5    Repeat 8x
|-4-6-44-5
|-4-6-44-5

Music:Odadjian/Malakian; Lyrics: Tankian
            
Submit corrections


        D Devil lessons Hard to play? Try these video lessons and learn fast D Devil lessons
        
↑ Back to top | Tablatures and chords for acoustic guitar and electric guitar, ukulele, drums are parodies/interpretations of the original songs. You may use it for private study, scholarship, research or language learning purposes only