» » »

Super Furry Animals - Sidewalk Serfer Girl Tabs

Artists:  A B C D E F G H I J K L M N O P Q R S T U V W X Y Z # 

Sidewalk Serfer Girl Tabs

(ver. 1) Click to play this song!
Super Furry Animals
 Rating:
4/5 (4 votes)

 Sidewalk Serfer Girl lessons Tabs too difficult? Try these video lessons and learn fast
 
                
                         SIDEWALK SERFER GIRL

  INTRO
     A9
              ^                          ^
     E     E  E  E  E  E  E  E     E  E  E  E  E  E  E  E
E||--------0-----0-----0-----0--|-----0-----0-----0-----0--|
B||-----------0-----------2-----|--------0-----------2-----|
G||-----------2-----4-----------|--------2-----4-----------|
D||-----------2-----------------|--------2-----------------|
A||--0--------------------------|--0-----------------------|
E||-----------------------------|--------------------------|

1st verse:

A9                                       Ddim
Patty Whitebull fell asleep for 15 years
A9                                          Ddim
Then unexpectedly she woke to joy and tears
A9                                              Ddim
She ordered pizza and then asked about her kids
A9                                               Ddim
They're all grown up now on the reservation grid

[The Ddim chords should be played loudly w/ distortion, while the A chords are quiet. 
tab below]

  1st VERSE
  A9
  E     E  E  E  E  E  E  E     E  E  E  E  E  E  E  E
--------0--------------------|-----0--------0--------0--|
-----------------2--0--------|--------------------0-----|
-----------------------2-----|--2--------------2--------|
-----------2--------------2--|-----------2--------------|
--0-----------0--------------|--------4-----------------|
-----------------------------|--------------------------|


  Ddim                                                 A9
  E    E  E  E  Q    E  E     E  E  Q    E  E  Q       E  E  E  E  E  E  E  E
---------------------------|------------------------|-----0--------0-----------|
-------6--6--6--6----6--6--|--6--6--6----6--6--6----|--------2--------2-----0--|
-------7--7--7--7----7--7--|--7--7--7----7--7--7----|-----------2--------2-----|
-------6--6--6--6----6--6--|--6--6--6----6--6--6----|--------------------------|
-------5--5--5--5----5--5--|--5--5--5----5--5--5----|--0-----------------------|
---------------------------|------------------------|--------------------------|


                             Ddim
  E  E  E  E  E  E  E  E     E    E  E  E  Q    E  E     E  E  Q    E  E  Q
-----0--------------------|---------------------------|------------------------|
--------0-----2-----------|-------6--6--6--6----6--6--|--6--6--6----6--6--6----|
-----------2-----------2--|-------7--7--7--7----7--7--|--7--7--7----7--7--7----|
--------------------2-----|-------6--6--6--6----6--6--|--6--6--6----6--6--6----|
--0--------------0--------|-------5--5--5--5----5--5--|--5--5--5----5--5--5----|
--------------------------|---------------------------|------------------------|


  A9
  E  E  E  E  E  E  E  E     E  E  E  E  E  E  E  E
-----0--------0-----------|-----0-----------0--------|
--------2--------2-----0--|--------0-----2-----------|
-----------2--------2-----|-----------2--------2-----|
--------------------------|--------------------------|
--0-----------------------|--0--------------------0--|
--------------------------|--------------------------|


  Ddim                                                 A9
  E    E  E  E  Q    E  E     E  E  Q    E  E  Q       E  E  E  E  E  E  E  E
---------------------------|------------------------|-----0--------0-----------|
-------6--6--6--6----6--6--|--6--6--6----6--6--6----|--------2--------2-----0--|
-------7--7--7--7----7--7--|--7--7--7----7--7--7----|-----------2--------2-----|
-------6--6--6--6----6--6--|--6--6--6----6--6--6----|--------------------------|
-------5--5--5--5----5--5--|--5--5--5----5--5--5----|--0-----------------------|
---------------------------|------------------------|--------------------------|


                             Ddim
  E  E  E  E  E  E  E  E     E    E  E  E  Q    E  E     E  E  Q    E  E  Q
-----0-----------0--------|---------------------------|------------------------|
--------0-----2-----------|-------6--6--6--6----6--6--|--6--6--6----6--6--6----|
-----------2--------2-----|-------7--7--7--7----7--7--|--7--7--7----7--7--7----|
-----------------------2--|-------6--6--6--6----6--6--|--6--6--6----6--6--6----|
--0-----------------------|-------5--5--5--5----5--5--|--5--5--5----5--5--5----|
--------------------------|---------------------------|------------------------|

1st Chorus:

A        G       D/F#
Sidewalk serfer girl
       Fdim        A         D/A
I'd do anything to catch you falling
A         G       D/F#
Slidewalk surfer girl
       Fdim        D/A              Am     D
I'd do anything to be with you, sometimes Oh


2nd Verse: [A Ddim]

Since Patty fell asleep things got so extreme
Surfer boys and girls searching for a dream
Paraglide from space die your bungee best
Set yourself alight whilst famine kills the rest

(the A chords are palm-muted power chords as shown below, and the Ddim are same as in 
1st verse)

     E  E  E  E
A||--7--7--7--7--|...
E||--5--5--5--5--|...

2nd Chorus:

A        G       D/F#
Sidewalk serfer girl
       Fdim        A         D/A
I'd do anything to catch you falling
A         G       D/F#
Sidewalk surfer girl
       Fdim        D/A                Am    D
I'd do anything to be with you, sometimes oh,
    Am      D      Am      D
Sometimes, oh, Sometimes, oh

3rd Verse: [like 2nd]

When Patty's aunts don't know the uncles will have fun
She cruised the streets at night she left home on the run (swell)
She never talks to me cos I'm a major yawn (excuse me)
Return the difference don't retake me, I'm no pawn

Last Chorus:

A         G      D/F#
Sidewalk serfer girl
        Fdim
I'd do anything to (catch you falling)
A        G        D/F#
Slidewalk serfer girl
          Fdim
I'd do anything to (catch you falling)... [repeat A G D/F# Fdim x4]

A
Sidewalk walk walk walk...


Sidewalk serfer girl... [repeat A G D/F# Fdim 4 times as above]

OUTRO: [see tab below]

A5                                 Ddim
(I dream of sidewalk surfer girl)

  A5
  PM PM PM PM PM PM PM PM    PM PM PM PM PM PM PM
  E  E  E  E  E  E  E  E     E  E  E  E  E  E  E  E
--------------------------|-----------------------5--|
--------------------------|-----------------------5--|
--------------------------|--------------------------|
--------------------------|--------------------------|
--7--7--7--7--7--7--7--7--|--7--7--7--7--7--7--7-----|
--5--5--5--5--5--5--5--5--|--5--5--5--5--5--5--5-----|


  Ddim
  E    E  E  E  Q    E  E     E  E  Q    E  E  Q       E  E  E  E  Q    E  E
---------------------------|------------------------|-------------------------|
-------6--6--6--6----6--6--|--6--6--6----6--6--6----|--6--6--6--6--6----6--6--|
-------7--7--7--7----7--7--|--7--7--7----7--7--7----|--7--7--7--7--7----7--7--|
-------6--6--6--6----6--6--|--6--6--6----6--6--6----|--6--6--6--6--6----6--6--|
-------5--5--5--5----5--5--|--5--5--5----5--5--5----|--5--5--5--5--5----5--5--|
---------------------------|------------------------|-------------------------|


                           A
  E  E  Q    E  E  Q       W
------------------------|--0----------------||
--6--6--6----6--6--6----|--2----------------||
--7--7--7----7--7--7----|--2----------------||
--6--6--6----6--6--6----|--2----------------||
--5--5--5----5--5--5----|--0----------------||
------------------------|-------------------||

CHORDS:

Fdim [Fm(b5)]  Ddim [Dm(b5)]     D/A

E||--1------|-------------|-----------||
B||--0------|----6--------|-------3---||
G||--1------|----7--------|-------2---||
D||-(3)-----|----6--------|-------4---||
A||---------|----5--------|-------0---||
E||-(1)-----|-------------|-----------||
            
Submit corrections


        Sidewalk Serfer Girl lessons Hard to play? Try these video lessons and learn fast Sidewalk Serfer Girl lessons
        
↑ Back to top | Tablatures and chords for acoustic guitar and electric guitar, ukulele, drums are parodies/interpretations of the original songs. You may use it for private study, scholarship, research or language learning purposes only