Home » S » Super Furry Animals »

Super Furry Animals - Hangin With Howard Marks Tabs

Artists:  A B C D E F G H I J K L M N O P Q R S T U V W X Y Z # 

Hangin With Howard Marks Tabs

(ver. 1) Click to play this song!
Super Furry Animals
 Rating:
4/5 (4 votes)
                (Intro)
try this folks

e -----------------------------------------------|
B 10---8-------------------------------10--12----|
G ---------11---9----9h11----7-------------------|
D -----------------------------7-----------------|
A -----------------------------------------------|
E -----------------------------------------------|

e ---10---12---10-------10-|
B -----------------12------|
G -------------------------|
D -------------------------|
A -------------------------|
E -------------------------|
            
Submit corrections

↑ Back to top | Tablatures and chords for acoustic guitar and electric guitar, ukulele, drums are parodies/interpretations of the original songs. You may use it for private study, scholarship, research or language learning purposes only