Home » S » Super Furry Animals »

Super Furry Animals - Bad Behaviour Tabs

Artists:  A B C D E F G H I J K L M N O P Q R S T U V W X Y Z # 

Bad Behaviour Tabs

(ver. 1) Click to play this song!
Super Furry Animals
[Intro]
 
e|-------------------------------------------------------------------|
B|-------------------------------------------------------------------|
G|-------------------------------------------------------------------|
D|-------------------------------------------------------------------|
A|--7-7-9-7-7-7-9-7-7-7-9-7-7-7-9-7-7-7-9-7-7-7-9-7-7-7-9-7-7-7-9-7--|
E|--5-5-5-5-5-5-5-5-5-5-5-5-5-5-5-5-5-5-5-5-5-5-5-5-5-5-5-5-5-5-5-5--|
 
 
[Chorus]
 
e|-------------------------------------------------------------------|
B|-------------------------------------------------------------------|
G|-------------------------------------------------------------------|
D|-------------------------------------------------------------------|
A|--7-7-9-7-7-7-9-7-7-7-9-7-7-7-9-7-7-7-9-7-7-7-9-7-7-7-9-7-7-7-9-7\-|
E|--5-5-5-5-5-5-5-5-5-5-5-5-5-5-5-5-5-5-5-5-5-5-5-5-5-5-5-5-5-5-5-5\-|
 
e|-------------------------------------------------------------------|
B|-------------------------------------------------------------------|
G|-------------------------------------------------------------------|
D|-------------------------------------------------------------------|
A|--5-5-7-5-5-5-7-5-5-5-7-5-5-5-7-5/7-7-9-7-7-7-9-7-7-7-9-7-7-7-9-7--|
E|--3-3-3-3-3-3-3-3-3-3-3-3-3-3-3-3/5-5-5-5-5-5-5-5-5-5-5-5-5-5-5-5--|
 
 
[Verse]
 
e|--------------------------------------------------------------------|
B|--------------------------------------------------------------------|
G|--------------------------------------------------------------------|
D|-----------------------------------4-4-6-4-4-4-6-4-4-4-6-4-4-4-6-4--|
A|--2-2-4-2-2-2-4-2-2-2-4-2-2-2-4-2--2-2-2-2-2-2-2-2-2-2-2-2-2-2-2-2--|
E|--0-0-0-0-0-0-0-0-0-0-0-0-0-0-0-0-----------------------------------|
 
e|--------------------------------------------------------------------|
B|--------------------------------------------------------------------|
G|--------------------------------------------------------------------|
D|--7-7-9-7-7-7-9-7-7-7-9-7-7-7-9-7-----------------------------------|
A|--5-5-5-5-5-5-5-5-5-5-5-5-5-5-5-5--7-7-9-7-7-7-9-7-7-7-9-7-7-7-9-7--|
E|-----------------------------------5-5-5-5-5-5-5-5-5-5-5-5-5-5-5-5--|
 
e|--------------------------------------------------------------------|
B|--------------------------------------------------------------------|
G|--------------------------------------------------------------------|
D|-----------------------------------4-4-6-4-4-4-6-4-4-4-6-4-4-4-6-4--|
A|--2-2-4-2-2-2-4-2-2-2-4-2-2-2-4-2--2-2-2-2-2-2-2-2-2-2-2-2-2-2-2-2--|
E|--0-0-0-0-0-0-0-0-0-0-0-0-0-0-0-0-----------------------------------|
 
e|--------------------------------------------------------------------|
B|--------------------------------------------------------------------|
G|--------------------------------------------------------------------|
D|--7-7-9-7-7-7-9-7-7-7-9-7-7-7-9-7-----------------------------------|
A|--5-5-5-5-5-5-5-5-5-5-5-5-5-5-5-5--7-7-9-7-7-7-9-7-7-7-9-7-7-7-9-7--|
E|-----------------------------------5-5-5-5-5-5-5-5-5-5-5-5-5-5-5-5--|
 
 
[Chorus]
 
e|-------------------------------------------------------------------|
B|-------------------------------------------------------------------|
G|-------------------------------------------------------------------|
D|-------------------------------------------------------------------|
A|--7-7-9-7-7-7-9-7-7-7-9-7-7-7-9-7-7-7-9-7-7-7-9-7-7-7-9-7-7-7-9-7\-|
E|--5-5-5-5-5-5-5-5-5-5-5-5-5-5-5-5-5-5-5-5-5-5-5-5-5-5-5-5-5-5-5-5\-|
 
e|-------------------------------------------------------------------|
B|-------------------------------------------------------------------|
G|-------------------------------------------------------------------|
D|-------------------------------------------------------------------|
A|--5-5-7-5-5-5-7-5-5-5-7-5-5-5-7-5/7-7-9-7-7-7-9-7-7-7-9-7-7-7-9-7--|
E|--3-3-3-3-3-3-3-3-3-3-3-3-3-3-3-3/5-5-5-5-5-5-5-5-5-5-5-5-5-5-5-5--|
 
 
[Verse]
 
e|--------------------------------------------------------------------|
B|--------------------------------------------------------------------|
G|--------------------------------------------------------------------|
D|-----------------------------------4-4-6-4-4-4-6-4-4-4-6-4-4-4-6-4--|
A|--2-2-4-2-2-2-4-2-2-2-4-2-2-2-4-2--2-2-2-2-2-2-2-2-2-2-2-2-2-2-2-2--|
E|--0-0-0-0-0-0-0-0-0-0-0-0-0-0-0-0-----------------------------------|
 
e|--------------------------------------------------------------------|
B|--------------------------------------------------------------------|
G|--------------------------------------------------------------------|
D|--7-7-9-7-7-7-9-7-7-7-9-7-7-7-9-7-----------------------------------|
A|--5-5-5-5-5-5-5-5-5-5-5-5-5-5-5-5--7-7-9-7-7-7-9-7-7-7-9-7-7-7-9-7--|
E|-----------------------------------5-5-5-5-5-5-5-5-5-5-5-5-5-5-5-5--|
 
e|--------------------------------------------------------------------|
B|--------------------------------------------------------------------|
G|--------------------------------------------------------------------|
D|-----------------------------------4-4-6-4-4-4-6-4-4-4-6-4-4-4-6-4--|
A|--2-2-4-2-2-2-4-2-2-2-4-2-2-2-4-2--2-2-2-2-2-2-2-2-2-2-2-2-2-2-2-2--|
E|--0-0-0-0-0-0-0-0-0-0-0-0-0-0-0-0-----------------------------------|
 
e|--------------------------------------------------------------------|
B|--------------------------------------------------------------------|
G|--------------------------------------------------------------------|
D|--7-7-9-7-7-7-9-7-7-7-9-7-7-7-9-7-----------------------------------|
A|--5-5-5-5-5-5-5-5-5-5-5-5-5-5-5-5--7-7-9-7-7-7-9-7-7-7-9-7-7-7-9-7--|
E|-----------------------------------5-5-5-5-5-5-5-5-5-5-5-5-5-5-5-5--|
 
 
[Chorus]
 
e|-------------------------------------------------------------------|
B|-------------------------------------------------------------------|
G|-------------------------------------------------------------------|
D|-------------------------------------------------------------------|
A|--7-7-9-7-7-7-9-7-7-7-9-7-7-7-9-7-7-7-9-7-7-7-9-7-7-7-9-7-7-7-9-7\-|
E|--5-5-5-5-5-5-5-5-5-5-5-5-5-5-5-5-5-5-5-5-5-5-5-5-5-5-5-5-5-5-5-5\-|
 
e|-------------------------------------------------------------------|
B|-------------------------------------------------------------------|
G|-------------------------------------------------------------------|
D|-------------------------------------------------------------------|
A|--5-5-7-5-5-5-7-5-5-5-7-5-5-5-7-5/7-7-9-7-7-7-9-7-7-7-9-7-7-7-9-7--|
E|--3-3-3-3-3-3-3-3-3-3-3-3-3-3-3-3/5-5-5-5-5-5-5-5-5-5-5-5-5-5-5-5--|
 
 
[Solo]
 
Play Verse x2
 
e|-----------------------------------12---12---12---------------------------------------|
B|--------------------------------------------------------------------------------------|
G|------------------------12-14b--14b--14b--14b----14b-12--14b-14-12--------------------|
D|------------------12-14--------------------------------------------14--14-12----------|
A|------------12-14------------------------------------------------------------14-12-14-|
E|--12--12-14---------------------------------------------------------------------------|
 
 
e|------------------------------12--------------------------------------------------------------------|
B|---------------------------------14b-14b-14-12----------------------------12b--12b-12b-12b-12b-12b--|
G|---------12-12b--14b-14b-14b--------------------14-12---------------------14b--14b-14b-14b-14b-14b--|
D|---12-14-----------------------------------------------------------12-14----------------------------|
A|-------------------------------------------------------------12-14----------------------------------|
E|------------------------------------------------------12-14-----------------------------------------|
 
 
[Chorus]
 
e|-------------------------------------------------------------------|
B|-------------------------------------------------------------------|
G|-------------------------------------------------------------------|
D|-------------------------------------------------------------------|
A|--7-7-9-7-7-7-9-7-7-7-9-7-7-7-9-7-7-7-9-7-7-7-9-7-7-7-9-7-7-7-9-7\-|
E|--5-5-5-5-5-5-5-5-5-5-5-5-5-5-5-5-5-5-5-5-5-5-5-5-5-5-5-5-5-5-5-5\-|
 
e|-------------------------------------------------------------------|
B|-------------------------------------------------------------------|
G|-------------------------------------------------------------------|
D|-------------------------------------------------------------------|
A|--5-5-7-5-5-5-7-5-5-5-7-5-5-5-7-5/7-7-9-7-7-7-9-7-7-7-9-7-7-7-9-7--|
E|--3-3-3-3-3-3-3-3-3-3-3-3-3-3-3-3/5-5-5-5-5-5-5-5-5-5-5-5-5-5-5-5--|
 
e|-------------------------------------------------------------------|
B|-------------------------------------------------------------------|
G|-------------------------------------------------------------------|
D|-------------------------------------------------------------------|
A|--7-7-9-7-7-7-9-7-7-7-9-7-7-7-9-7-7-7-9-7-7-7-9-7-7-7-9-7-7-7-9-7\-|
E|--5-5-5-5-5-5-5-5-5-5-5-5-5-5-5-5-5-5-5-5-5-5-5-5-5-5-5-5-5-5-5-5\-|
 
e|-------------------------------------------------------------------|
B|-------------------------------------------------------------------|
G|-------------------------------------------------------------------|
D|-------------------------------------------------------------------|
A|--5-5-7-5-5-5-7-5-5-5-7-5-5-5-7-5/7-7-9-7-7-7-9-7-7-7-9-7-7-7-9-7--|
E|--3-3-3-3-3-3-3-3-3-3-3-3-3-3-3-3/5-5-5-5-5-5-5-5-5-5-5-5-5-5-5-5--|
 
 
[Solo/Outro]
 
Play Chorus x8
Lots of random notes and sounds in solo
 
e|-------------------------------------------------------------------|
B|-------------------------------------------------------------------|
G|-------------------------------------------------------------------|
D|-------------------------------------------------------------------|
A|--7-7-9-7-7-7-9-7-7-7-9-7-7-7-9-7-7-7-9-7-7-7-9-7-7-7-9-7-7-7-9-7\-|
E|--5-5-5-5-5-5-5-5-5-5-5-5-5-5-5-5-5-5-5-5-5-5-5-5-5-5-5-5-5-5-5-5\-|
 
e|-------------------------------------------------------------------|
B|-------------------------------------------------------------------|
G|-------------------------------------------------------------------|
D|-------------------------------------------------------------------|
A|--5-5-7-5-5-5-7-5-5-5-7-5-5-5-7-5/7-7-9-7-7-7-9-7-7-7-9-7-7-7-9-7--|
E|--3-3-3-3-3-3-3-3-3-3-3-3-3-3-3-3/5-5-5-5-5-5-5-5-5-5-5-5-5-5-5-5--|
            
Submit corrections

↑ Back to top | Tablatures and chords for acoustic guitar and electric guitar, ukulele, drums are parodies/interpretations of the original songs. You may use it for private study, scholarship, research or language learning purposes only