» » »

Superchick - I Belong To You Tabs

Artists:  A B C D E F G H I J K L M N O P Q R S T U V W X Y Z # 

I Belong To You Tabs

(ver. 2) Click to play this song!
Superchick
 Rating:
3/5 (6 votes)

 I Belong To You lessons Tabs too difficult? Try these video lessons and learn fast
 
                -------------------------------------------------------------------------------
-------------------------------------------------------------------------------

Tuning: Standard, NO CAPO

(Lyrics provided under each verse or chorus)

I think this song has a beautiful melody- the one I designed for you is from the 
Mix version! Not the regular one!
I tried to make it sound like it, but in the verses and stuff, it begins to sound like 
tune!^^ Enjoy!
And please note that * means to play that note for multiple times- but not too many! 
will be ONE reminder.

INTRO:

e|------------------------------------------0--------0--------0-1-0---------------|
B|------1-1-3-1-------1-1-3-1-----------1-3------1-3------1-3-------3-------------|
G|-0-0-----------0-0------------x2----0--------0--------0-------------------------|
D|--------------------------------------------------------------------------------|
A|--------------------------------------------------------------------------------|
E|--------------------------------------------------------------------------------|

VERSE 1:

e|-----0-0-------0--------------0-0-------0-------------0-0--------0---------|
B|-1-3-----3-3-3--3-1-1-----1-3-----3-3-3---3-1-1---1-3-----3-3-3----3-1-1---|
G|---------------------------------------------------------------------------|
D|---------------------------------------------------------------------------|
A|---------------------------------------------------------------------------|
E|---------------------------------------------------------------------------|

e|-----0-0--------0-------|
B|-1-3----3-3-3-1--3--1---|
G|------------------------| *You can play the last '1' multiple times for effect
D|------------------------|
A|------------------------|
E|------------------------|

Everybody needs to belong somewhere
Life can feels so alone without someone who cares.
And when life becomes something just to get through,
That’s when I’m glad that I belong to you.

CHORUS:

e|-3-0-3-0-3*---3-0-3-0-3*---333333---0------------0--------------0----------|
B|--------------------------------------3-1------3---3-1---3-3-1----3-1------|
G|----------------------------------2-------2--------------------------------|
D|---------------------------------------------------------------------------|
A|---------------------------------------------------------------------------|
E|---------------------------------------------------------------------------|

I belong to you, I belong to you,
You’re the one who will never let me down,
Won’t let me down.
I belong to you.
Lord, I belong to you.

VERSE 2:

e|-----0-0-------0--------------0-0-------0-----1-0-----0-0--------0---------|
B|-1-3-----3-3-3--3-1-1-----1-3-----3-3-3---3-1-----1-3-----3-3-3----3-1-1---|
G|---------------------------------------------------------------------------|
D|---------------------------------------------------------------------------|
A|---------------------------------------------------------------------------|
E|---------------------------------------------------------------------------|

Sometimes life brings more pain than we can bear alone.
When hope is gone and I have no strength to stand on my own,
When nothing helps, there’s nothing that I can do,
You surround me and show me I belong to you.

CHORUS:

e|-3-0-3-0-3*---3-0-3-0-3*---333333---0------------0--------------0----------|
B|--------------------------------------3-1------3---3-1---3-3-1----3-1------|
G|----------------------------------2-------2--------------------------------|
D|---------------------------------------------------------------------------|
A|---------------------------------------------------------------------------|
E|---------------------------------------------------------------------------|


I belong to you, I belong to you,
You’re the one who will never let me down,
Won’t let me down.
I belong to you.
Lord, I belong to you.

VERSE 3:

e|-----0-0-------0--------------0-0-------0-----1-0-----0-0--------0---------|
B|-1-3-----3-3-3--3-1-1-----1-3-----3-3-3---3-1-----1-3-----3-3-3----3-1-1---|
G|---------------------------------------------------------------------------|
D|---------------------------------------------------------------------------|
A|---------------------------------------------------------------------------|
E|---------------------------------------------------------------------------|

When love is gone there’s no arms to run to anymore,
I’m all alone there’s no one for me to live for,
Letting go of the things I’ve always clung to,
That’s when I need to feel that I belong to you.

CHORUS:

e|-3-0-3-0-3*---3-0-3-0-3*---333333---0------------0--------------0----------|
B|--------------------------------------3-1------3---3-1---3-3-1----3-1------|
G|----------------------------------2-------2--------------------------------|
D|---------------------------------------------------------------------------|
A|---------------------------------------------------------------------------|
E|---------------------------------------------------------------------------|x2


e|-----0-------|
B|-3-1---3-1-1-|
G|-------------|
D|-------------|
A|-------------|
E|-------------|

I belong to you, I belong to you,
You’re the one who will never let me down,
Won’t let me down.
I belong to you.
Lord, I belong to you. (Or 'Oh, I belong to you)
----------------------------------------------

 And that's it! Hope you enjoyed!

Loulou=]
says...taking requests!


| /  slide up
| \  slide down
| h  hammer-on
| p  pull-off
| ~  vibrato
| +  harmonic
  *  play multiple times   <----My added info=P
===============================================================================
            
Submit corrections


        I Belong To You lessons Hard to play? Try these video lessons and learn fast I Belong To You lessons
        
↑ Back to top | Tablatures and chords for acoustic guitar and electric guitar, ukulele, drums are parodies/interpretations of the original songs. You may use it for private study, scholarship, research or language learning purposes only