» » »

Superchick - Crawl (Carry Me Through) Tabs

Artists:  A B C D E F G H I J K L M N O P Q R S T U V W X Y Z # 

Crawl (Carry Me Through) Tabs

(ver. 1) Click to play this song!
Superchick
 Rating:
4/5 (4 votes)

 Crawl (Carry Me Through) lessons Tabs too difficult? Try these video lessons and learn fast
 
                crawl (carry me through)
superchic[k]
rock what you got

this is definitely not 100% but this is as close as i could get it from the
acoustic version i heard. superchic[k] is just too awesome for me to do it
all by ear. sorry for all the sloppy-ness it's 1:30 am right now and i'm tired.
so cut me some slack. sorry if it seems confusing or hard, it really isn't
that bad. feel free to adjust as you see fit. GOD BLESS


tuning: EAEF#Bd

chords for strumming:
(**note: these are not actual chord names, i'm just making it up)

 G#:466xxx
 F#:212xxx
  E:022xxx
  B:989xxx
 C#:111313xxx
 D#:131515xxx


intro:

 d|-------------------------x-x-x----|
 B|-------------------------x-x-x----|
F#|--------5----------------x-x-x----|
 E|------6---------7-----2--4-4-2----|
 A|----6-------6-------4----4-4-4----|
 E|--4-------7-------2------2-2-2----|

verse

 d|------x--------x--------x-x--2-------------------|
 B|------x--------x--------x-x-----4----------------|
F#|------x--------x--------x-x----------------------|
 E|------6--------7--------4-4----------------------|
 A|----6-6------6-6------4-4-4----------------------|
 E|--4---4----7---7----2---2-2----------------------|

 d|---------------------------2-------------------|
 B|-----------------------------4-----------------|
F#|--------5--------------------------------------|
 E|------6---------7-----2------------------------|
 A|----6-------6-------4--------------------------|
 E|--4-------7-------2------2---------------------|

 d|----------------------------------|
 B|----------------------------------|
F#|--------5-------------------------|
 E|------6--------7------2---4---2---|
 A|----6-------6-------4---4---4-----|
 E|--4-------7-------2---------------|

 d|-----|     d|-----------|
 B|-----|     B|-----------|
F#|-----|    F#|-----------|
 E|--2--|     E|--2--------|
 A|--2--|     A|--1--------|
 E|--0--| x8     E|--2-----| x8

 d|-----|     d|--------|
 B|-----|     B|--------|
F#|-----|    F#|--------|
 E|--9--|     E|--2-----|
 A|--8--|     A|--1-----|
 E|--9--|      E|--2----|

chorus:
	        G#
and if i had to crawl
     E           B
well You'd crawl too
   E       F#   G#
i stumble and i fall
   E         B
carry me through
    E      F#    G#
the wonder of it all
E   B  E   F#  G#	E  C# D#
is You see me through

bridge:
       C#
when everything i was is lost
	E
i have forgot but You have not
     D#				 C#
when i am lost You have not lost me (2x)

E F# B F# into chorus

outro: G#, E, C#, D#

 d|--------------------------|
 B|--------------------------|
F#|--------------------------|
 E|------4-------0-2-----9---|
 A|----6-------2--------8----|
 E|--4-----2-0---------9-----|

lyrics:

how long will this take
how much can i go through
my heart my soul aches
i don't know what to do
i bend but don't break
and somehow i'll get through
cuz i have You

and if i had to crawl
(will You crawl too)
i stumble and i fall
(carry me through)
the wonder of it all
is You see me through

oh Lord, where are You
do not forget me here
i cry in silence
can You not see my tears
when all have left me
and hope has disappeared
You find me here

chorus

when everything i was is lost
i have forgot but You have not
when i am lost You have not lost me (2x)

chorus
            
Submit corrections


        Crawl (Carry Me Through) lessons Hard to play? Try these video lessons and learn fast Crawl (Carry Me Through) lessons
        
↑ Back to top | Tablatures and chords for acoustic guitar and electric guitar, ukulele, drums are parodies/interpretations of the original songs. You may use it for private study, scholarship, research or language learning purposes only