» » »

Superchick - Hero Tabs

Artists:  A B C D E F G H I J K L M N O P Q R S T U V W X Y Z # 

Hero Tabs

(ver. 1) Click to play this song!
Superchick
 Rating:
4.2/5 (5 votes)

 Hero lessons Tabs too difficult? Try these video lessons and learn fast
 
                

Tuning: Standard

Intro (Clean)
e|----------------------------------------------------------------------------|
B|----------------------------------------------------------------------------|
G|--------5-6----------5-6---------5-6-----------8-6--------------------------|
D|---------------4-4-4---------------------6-6-6------------------------------|
A|---------------------------4-4-4--------------------------------------------|
E|--6-6-6---------------------------------------------------------------------|

e|-------------------------------------------------------------------|
B|-------------------------------------------------------------------|
G|--------5-6----------5-6-----------5-6-----------5-5---------------|   Intro
D|--------------4-4-4--------6-6-6 ---------6-6-6--------------------|    2 X's
A|-------------------------------------------------------------------|
E|--6-6-6------------------------------------------------------------|


Chorus (Distortion)
e|------------------------------------------------------------------------------|
B|------------------------------------------------------------------------------|
G|-----------------------6666-x-5555-x-5555-------------------------------------|
D|--8888----4444-xx4-4---6666-x-6666-x-6666----(2 X's)--------------------------|
A|--8888----4444-xx4-4---4444-x-6666-x-6666-------------------------------------|
E|--6666----2222-xx2-2----------4444-x-4444-------------------------------------|


e|----------------------------------------------------------------------------|
B|----------------------------------------------------------------------------|
G|---------------------66-66--------------------------------------------------|
D|---88-88--44-44--4---66-66--66-66--6------------8\--------------------------|
A|---88-88--44-44--4---44-44--66-66--6----(2 X's)-8\--------------------------|
E|---66-66--22-22--2----------44-44--4------------6\--------------------------|

Verse 2 (Special effect pedal)
e|------------------------------------------------------------------------------|
B|------------------------------------------------------------------------------|
G|------------------------------------------------------------------------------|
D|---6-6-6-6--------------------------------------------------------------------|
A|---6-6-6-6----(2 X's)---------------------------------------------------------|
E|---4-4-4-4--------------------------------------------------------------------|


(Chorus)
Verse 3 (Intro Once)

Chorus (Distortion)
e|------------------------------------------------------------------------------|
B|------------------------------------------------------------------------------|
G|-----------------------6666-x-5555-x-5555-------------6\----------------------|
D|--8888----4444-xx4-4---6666-x-6666-x-6666----(2 X's)--6\----------------------|
A|--8888----4444-xx4-4---4444-x-6666-x-6666-------------4\----------------------|
E|--6666----2222-xx2-2----------4444-x-4444-------------------------------------|

Rap/Bridge/Verse 4 (Whatever you want to call it) (Distortion)
e|---------------------------------------------------------------------------|
B|---------------------------------------------------------------------------|
G|---------------------------------------------------------------------------|
D|---------------------------------------------------------------------------|
A|---------------------------------------------------------------------------|
E|--6-666-66-66-6666-4-444-44-44-4444-2-222-22-22-2-22-1-1-1-1-4-44444-------| (2 X's)

e|-----------------------------------------------------------------------------|
B|-----------------------------------------------------------------------------|
G|-----------------------------------------------------------------------------|
D|--xx8x8xxx8xx8x8x8--xx6x6xxx6xx6x6x6--xx4x4xxx4xx4x4x4--xx3x3xxx3xx6x6x6-----|
A|--xx8x8xxx8xx8x8x8--xx6x6xxx6xx6x6x6--xx4x4xxx4xx4x4x4--xx3x3xxx3xx6x6x6-----|
E|--xx6x6xxx6xx6x6x6--xx4x4xxx4xx4x4x4--xx2x2xxx2xx2x2x2--xx1x1xxx1xx4x4x4-----|

                                                                            (2 X's)


e|--------------------|
B|--------------------|
G|--------------------|
D|-----------8\-------|
A|-----------8\-------| (Optional - not really in the Song)
E|-----------6\-------|


Ending (Distortion)
e|----------------------------------------------------------------------------|
B|----------------------------------------------------------------------------|
G|---xx6666--------------6666-x-5555-x-5555-----------------------------------|
D|---xx6666--3333-xx3-3--6666-x-6666-x-6666-----------------------------------|
A|---xx4444--3333-xx3-3--4444-x-6666-x-6666-----------------------------------|
E|-----------1111-xx1-1---------4444-x-4444-----------------------------------|

e|----------------------------------------------------------------------------|
B|----------------------------------------------------------------------------|
G|---------------------6666-x-5555-x-5555-------------------------------------|
D|--8888-x-3333-xx3-3--6666-x-6666-x-6666-------------------------------------|
A|--8888-x-3333-xx3-3--4444-x-6666-x-6666-------------------------------------|
E|--6666-x-1111-xx1-1---------4444-x-4444-------------------------------------|

e|------------------------------------------------------------------------------|
B|------------------------------------------------------------------------------|
G|---------------------6666-x-5555-x-5555---------------------------------------|
D|--8888-x-4444-xx4-4--6666-x-6666-x-6666----------------End On---8-------------|
A|--8888-x-4444-xx4-4--4444-x-6666-x-6666--(2 X's)----------------8-------------|
E|--6666-x-2222-xx2-4---------4444-x-4444-------------------------6-------------|

During Last progression (Guitar 2) (Listen for it)
e|------------------------------------------------------------------------------|
B|------------------------------------------------------------------------------|
G|--6-6-6-6-6-6-6-6-6-6-6-5-5-5-5-5-(2 X's)---End on--3-------------------------|
D|------------------------------------------------------------------------------|
A|------------------------------------------------------------------------------|
E|------------------------------------------------------------------------------|

| /  slide up
| \  slide down
| h  hammer-on
| p  pull-off
| ~  vibrato
| +  harmonic
| x  Mute note
            
Submit corrections


        Hero lessons Hard to play? Try these video lessons and learn fast Hero lessons
        
↑ Back to top | Tablatures and chords for acoustic guitar and electric guitar, ukulele, drums are parodies/interpretations of the original songs. You may use it for private study, scholarship, research or language learning purposes only