Home » S » Sunny Day Real Estate »

Sunny Day Real Estate - Snibe Tabs

Artists:  A B C D E F G H I J K L M N O P Q R S T U V W X Y Z # 

Snibe Tabs

(ver. 1) Click to play this song!
Sunny Day Real Estate
 Rating:
4/5 (4 votes)
                

Tuning: EADGBE
I sat down and figured this out by ear the other day.
To get timing and structure down just play along to or just listen to the song.

Intro bass riff
e|-----------------------------------------------------------------------------|
B|-----------------------------------------------------------------------------|
G|-----------------------------------------------------------------------------|
D|-----------------------------------------------------------------------------|
A|-------5-5---------5-5----3-3---------5-5------------------------------------|
E|-3-3---------6-6----------------6-6------------------------------------------|

Verse
e|-----------------------------------------------------------------------------|
B|-----5--------5--------5-------6\5--------5--------5--------5--------6\5-----|
G|---5--5-----5--5-----5--5-----5---5-----5--5-----5--5-----5--5-----5----5----|
D|-----------------------------------------------------------------------------|
A|----------5-----------------5---------3--------5-----------------5-----------|
E|-3-----------------6------------------------------------6--------------------|

Prechorus
e|-----------------------------------------------------------------------------|
B|------3---------3---------3---------3----------------------------------------|
G|------2----3----2----5----2----3----2----------------------------------------|
D|-5----0----3----0----5----0----3----0----------------------------------------|
A|-5----0----1----0----3----0----1----0----------------------------------------|
E|-3---------------------------------------------------------------------------|

Chorus
e|-----------------------------------------------------------------------------|
B|------3---------3------------------------------------------------------------|
G|------2----3----2------------------------------------------------------------|
D|-5----0----3----0------------------------------------------------------------|
A|-5----0----1----0------------------------------------------------------------|
E|-3---------1-----------------------------------------------------------------|

Bridge/Vocoder part
e|-----------------------------------------------------------------------------|
B|-----------------------------------------------------------------------------|
G|-----------------------------------------------------------------------------|
D|-0----0----0----0----0----0----0----0----0-----------------------------------|
A|-x----x----x----x----x----x----x----x----x-----------------------------------|
E|-3----3----3----3----3----3----3----3----3-----------------------------------|


Last Verse/Bridge Verse
e|-----------------------------------------------------------------------------|
B|-----5--------6--------5--------6--------5--------3--------5--------3--------|
G|---5--5-----5--5-----5--5-----5--5-----5--5-----5--5-----5--5-----5--5-------|
D|-----------------------------------------------------------------------------|
A|----------5----------------5---------3--------5-----------------5------------|
E|-3-----------------6-----------------------------------6---------------------|
            
Submit corrections

↑ Back to top | Tablatures and chords for acoustic guitar and electric guitar, ukulele, drums are parodies/interpretations of the original songs. You may use it for private study, scholarship, research or language learning purposes only