Home » S » Sunny Day Real Estate »

Sunny Day Real Estate - 47 Tabs

Artists:  A B C D E F G H I J K L M N O P Q R S T U V W X Y Z # 

47 Tabs

(ver. 1) Click to play this song!
Sunny Day Real Estate
(Intro)
-------------------------------------------------------------------------------
                             47 - Sunny Day Real Estate
-------------------------------------------------------------------------------

Tuning: Standard

e|-------5h6---------------5h6-----------------------------------------------|
B|---6--------10--6----6--------10-------------------------------------------|
G|----------------------------------10--10h12--------------------------------|
D|---------------------------------------------------------------------------|
A|---------------------------------------------------------------------------|
E|---------------------------------------------------------------------------|

e|-------5h6-----------------------------------------------------------------|
B|---6--------10--6----11--10------------------------------------------------|
G|-----------------------------10h12-----------------------------------------|
D|---------------------------------------------------------------------------|
A|---------------------------------------------------------------------------|
E|---------------------------------------------------------------------------|



| h  hammer-on

===============================================================================
            
Submit corrections

↑ Back to top | Tablatures and chords for acoustic guitar and electric guitar, ukulele, drums are parodies/interpretations of the original songs. You may use it for private study, scholarship, research or language learning purposes only