» » »

Sun Kil Moon - Heron Blue Tabs

Artists:  A B C D E F G H I J K L M N O P Q R S T U V W X Y Z # 

Heron Blue Tabs

(ver. 2) Click to play this song!
Sun Kil Moon
 Rating:
4.5/5 (8 votes)

 Heron Blue lessons Tabs too difficult? Try these video lessons and learn fast
 
                (Intro)
Sun kil Moon - Heron Blue

I've seen ppl try to make tabs that sounded like the original, but when you played them 
just sounds ackward.
I've given my examlpe of what I think it should sound like, and this is just a guide, so 
free to make adjustments.


e|----------------------------------------------------------------|
B|-3-3-3-3-3-3-3-3-3-3-3-3-3-3-3-3-3-3-3-3-3-3-3-3-3-3-3-3-3-3-3-3|
G|0-0-0-0-3---3-3---0---0-----0-0-0-0-0-0-3---3-3---0---0-----0-0-| Intro X2
D|----------------3---3-----0---------------------3---3-----0-----|
A|------------------------3-------------------------------3-------|
E|----------------------------------------------------------------|


e|----------------------------------------------------------------|
B|-3-3-3-3-3-3-3-3-3-3-3-3-3-3-3-3-3-3-3-3-3-3-3-3-3-3-3-3-3-3-3-3| Verse 1
G|0---0-0-3---3-3---0---0-----0---0---0-3---3-3---0---0-----0-0---|
D|----------------3---3-----0-------------------3---3-----0-------|
A|------------------------------------------------------3---------|
E|------------------------3-----3---------------------------------|

Verse 1 part B: Play in 4th line of verse
e|----------------------------------------------------------------|
B|-3-3-3-3-3-3-3-3-3-3-3-3-3-3-3-3-3-3-3-3-3-3-3-3-3-3-3-3-3-3-3-3|
G|0---0-0-3---3-3---0---0---2---0-0---0-0-3---3-3---0---0-----0-0-|
D|----------------3---3---0---0-------------------3---3-----0-----|
A|--------------------------------------------------------3-------|
E|----------------------------------------------------------------|

e|----------------------------------------------------------------|
B|-3-3-3-3-3-3-3-3-3-3-3-3-3-3-3-3-3-3-3-3-3-3-3-3-3-3-3-3-3-3-3-3| Verse 2
G|0---0-0-3---3-3---0---0-----0---0---0-3---3-3---0---0-----0-0---|
D|----------------3---3-----0-------------------3---3-----0-------|
A|------------------------------------------------------3---------|
E|------------------------3-----3---------------------------------|

2nd+4th line: Part B


e|----------------------------------------------------------------|
B|-3-3-3-3-3-3-3-3-3-3-3-3-3-3-3-3-3-3-3-3-3-3-3-3-3-3-3-3-3-3-3-3| Verse 3
G|0---0-0-3---3-3---0---0-----0---0---0-3---3-3---0---0-----0-0---|
D|----------------3---3-----0-------------------3---3-----0-------|
A|------------------------------------------------------3---------|
E|------------------------3-----3---------------------------------|

2nd+3rd line: Part B

I'll be updating it as soon as I've fixed the solo part
            
Submit corrections


        Heron Blue lessons Hard to play? Try these video lessons and learn fast Heron Blue lessons
        
↑ Back to top | Tablatures and chords for acoustic guitar and electric guitar, ukulele, drums are parodies/interpretations of the original songs. You may use it for private study, scholarship, research or language learning purposes only