» » »

Suffocation - Human Waste Tabs

Artists:  A B C D E F G H I J K L M N O P Q R S T U V W X Y Z # 

Human Waste Tabs

(ver. 2) Click to play this song!
Suffocation
 Rating:
4/5 (4 votes)

 Human Waste lessons Tabs too difficult? Try these video lessons and learn fast
 
                =================================================================================================


Tuning: Drop D

Notation Key
v: vibrato
t: tremolo bar
^: bend
.: palm mute
~: trill
p: pull-off
h: hammer-on
x: ghost note
/: slide up
\: slide down

=================================================================================================

Intro x1
e|------------------|
B|------------------|
G|------------------|
D|-----3---3-2------|
A|---1-1---1-0-3-1--|
E|--0----0-----3-1--|

Riff 1 x2
e|-----------------------------------|---------------------------------|
B|-----------------------------------|---------------------------------|
G|-----------------------------------|---------------------------------|
D|-----------------------------------|---------------------------------|
A|-----------------------------------|------------------------------1--|
E|--0-0-000-0-0-000-3-0-2-0-3-0-5-8--|--0-0-000-0-0-000-5-7-3-5-2-3-1--|

e|-----------------------------------|---------------------------------|
B|-----------------------------------|---------------------------------|
G|-----------------------------------|---------------------------------|
D|-----------------------------------|--------------------------3-2-1--|
A|-----------------------------------|------------------1-3-4-5--------|
E|--0-0-000-0-0-000-3-0-2-0-3-0-5-8--|--0-0-000-0-0-000----------------|

Riff 2 x2
e|-----------------------------------|-----------------------------------|
B|-----------------------------------|-----------------------------------|
G|-----------------------------------|-----------------------------------|
D|-----------------------------------|-----------------------------------|
A|------333--------------------------|-----------------------------------|
E|--222-----222-333-000-444-333-111--|--222-222-333-555-000-222-333-111--|

Fig. 1 x1
e|--------------------------|-----------------------------------|
B|--------------------------|-----------------------------------|
G|--------------------------|-----------------------------------|
D|-----5--------------------|-----------------------------------|
A|--2--3--2--3--0--4--3--1--|-----------------------------------|
E|--2-----2--3--0--4--3--1--|--4-6-5-6-3-5-4-5-3-4-2-3-1-2-0-1--|

e|--------------------------|----------------------------------|
B|--------------------------|----------------------------------|
G|--------------------------|------------------------------5v--|
D|-----5--------------------|----------------------5-4-6-7-----|
A|--2--3--2--3--0--4--3--1--|--------------5-4-5-6-------------|
E|--2-----2--3--0--4--3--1--|--1-2-6-5-6-7---------------------|

e|--------------------------|-----------------------------------|
B|--------------------------|-----------------------------------|
G|--------------------------|-----------------------------------|
D|-----5--------------------|-----------------------------------|
A|--2--3--2--3--0--4--3--1--|-----------------------------------|
E|--2-----2--3--0--4--3--1--|--4-6-5-6-3-5-4-5-3-4-2-3-1-2-0-1--|

e|-----------------------------|
B|-----------------------------|
G|-----------------------------|
D|-----5-----------------------|
A|--2--3--2--3--0--4--3--1--0--|
E|--2-----2--3--0--4--3--1--0--|

Fig. 2 x4
e|----------------------------------------------------|
B|----------------------------------------------------|
G|----------------------------------------------------|
D|----------------------------------------------------|
A|--0-0-0-0-0-0-0-0-0-0-0-0---------------------------|
E|--0-0-0-0-0-0-0-0-0-0-0-0--7-6-3-2-1-0-6-5-2-3-2-1--|

Riff 3 x2
e|-----------------------------------------------------------------------|
B|-----------------------------------------------------------------------|
G|----------1-0-------------------------------1-0-----3-2----------------|
D|--------------3-2-------------3-----------------3-2-----3-2-----3------|
A|--------------------------1-3---3-(5)-----------------------1-3---(5)--|
E|--0-0-0-0---------0-0-0-0----------0-0-0-0-----------------------------|
12:19 PM 7/31/20027zx
Repeat Fig. 2 x2

Fig. 3 x1
e|--------------------------------------------------|
B|--------------------------------------------------|
G|--------------------------------------------------|
D|--------------------------------------------------|
A|--------1-----3-----1r0--------------6-5-4--------|
E|--0-0-0-1-0-0-3-0-0-1r0--3-6-5-5-8-7-------8-7-6--|

e|--------------------------------------------------|
B|--------------------------------------------------|
G|--------------------------------------------------|
D|--------------------------------------------------|
A|--------1-----3-----1r0--------------5-6-4--------|
E|--0-0-0-1-0-0-3-0-0-1r0--3-5-6-5-7-8-------8-7-6--|

e|--------------------------------------------------
B|--------------------------------------------------
G|--------------------------------------------------
D|-----------------------------------------------6--
A|--------1-----3-----1r0--------------6-5-4--------
E|--0-0-0-1-0-0-3-0-0-1r0--3-6-5-5-8-7-------7-8----

e|--------------------------------------------------|
B|--------------------------------------------------|
G|--------------------------------------------------|
D|--------------------------------------------------|
A|--------1-----3-----1r0--------------5-6-4--------|
E|--0-0-0-1-0-0-3-0-0-1r0--3-5-6-5-7-8-------8-7-6--|

Fig. 4 x3
e|--------------------------------|--------------------------------|----------------|
B|--------------------------------|--------------------------------|----------------|
G|--------------------------------|--------------------------------|----------------|
D|--------------------------------|--------------------------------|----------------|
A|--------------------------------|--------------------------------|---------1-0-1--|
E|--000000000000-000-000-2-3-7-6--|--000000000000-000-000-2-3-7-6--|--222222-1-0-1--|

e|----------------|
B|----------------|
G|----------------|
D|----------------|
A|---------1-0-1--|
E|--222222-1-0-1--|

Fig. 4B x1
e|----------------|----------------|----------------|----------------|----------------|
B|----------------|----------------|----------------|----------------|----------------|
G|----------------|----------------|----------------|----------------|----------------|
D|----------------|----------------|----------------|----------------|----------------|
A|---------1-0-1--|---------1-0-1--|---------1-0-1--|---------1-0-1--|---------1-0-1--|
E|--333333-1-0-1--|--333333-1-0-1--|--222222-1-0-1--|--222222-1-0-1--|--333333-1-0-1--|

e|----------------|-------------------|
B|----------------|-------------------|
G|----------------|-------------------|
D|----------------|-------------------|
A|---------1-0-1--|--1-1-1-1-1-1-1-1--|
E|--333333-1-0-1--|--1-1-1-1-1-1-1-1--|

Riff 4 x2
e|----------------------------------|
B|----------------------------------|
G|-----------------------------2t3--|
D|----------------------------------|
A|---------2---1---1-------1-2------|
E|--111111---1---1---1-3-4----------|

Riff 5 x2
e|----------------------------------|
B|----------------------------------|
G|----------------------------------|
D|----------------------------------|
A|---------1---0-----------1--------|
E|--000000---0---000-1-2-3---3-2-1--|

Repeat Riff 4 x2
Repeat Riff 5 x2
Repeat Riff 2 x3
Repeat Riff 1 x1
            
Submit corrections


        Human Waste lessons Hard to play? Try these video lessons and learn fast Human Waste lessons
        
↑ Back to top | Tablatures and chords for acoustic guitar and electric guitar, ukulele, drums are parodies/interpretations of the original songs. You may use it for private study, scholarship, research or language learning purposes only