» » »

Submersed - Unconcerned Tabs

Artists:  A B C D E F G H I J K L M N O P Q R S T U V W X Y Z # 

Unconcerned Tabs

(ver. 3) Click to play this song!
Submersed
 Rating:
3.2/5 (22 votes)

 Unconcerned lessons Tabs too difficult? Try these video lessons and learn fast
 
                Intro/verse
e:/-----------------------------------------------------------------|
B:/-----------------------------------------------------------------|
G:/----------------------2------------------------------------------|
D:/-----2h4--4--4--2-------2----------2h4---4------------4---4vv----|
A:/---0---------------0------0------2---------2--------5---5----5---|
D:/-0------0--0--0--0----------0--2-------2-----2--3/5--------------|

Pre chorus
e------------------------------|
B------------------------------|
G------------------------------|
D--8888888--7777777--55555555--|
A--8888888--7777777--55555555--|
D--8888888--7777777--55555555--|

Chorus - Repeat 4 times
e:/--------------------------------------------------|
B:/--3-33--1010-1010-5-55--8-88-8-8------------------|
G:/--2-22--9-99-9-9--4-44--7-77-7-7------------------|
D:/--0-00--7-77-7-7--2-22--5-55-5-5------------------|
A:/--0-00--7-77-7-7--2-22--5-55-5-5------------------|
D:/--0-00--7-77-7-7--2-22--5-55-5-5------------------|

First chorus lead guitar (after second time)
e:/-----------------|
B:/-----------------|
G:/--7/9/11\9\7-----|
D:/--x/x/x-\x\x-----|
A:/--5/7/9-\7\5-----|
D:/-----------------|

Second chorus lead guitar (after second time)
e:/-----------------|
B:/-----------------|
G:/--11\9\7---------|
D:/--x-\x\x---------|
A:/--9\7\5----------|
D:/-----------------|

Third chorus lead guitar (after second time)
e:/-----------------|
B:/--19vvvv---------|
G:/-----------------|
D:/-----------------|
A:/-----------------|
D:/-----------------|

Bridge

Repeat occasionally 
e:/--5---5--5---5---|
B:/----7------7-----|
G:/-----------------|
D:/-----------------|
A:/-----------------|
D:/-----------------|

Rhythm
e:/---------------------------------------------------------|
B:/---------------------------------------------------------|
G:/-----------7--------7---7/9\7----------------------------|
D:/--0~----5~---7--5~----7--------7~-----7~-----------------|
A:/--0~----5~------5~-------------5~-----5~-----------------|
D:/--0~----5~------5~-------------5~-----5~-----------------|

Lead
e:/---------------------------------------------------------|
B:/---------------------------------------------------------|
G:/-14-14--12-12--11-111111---------------------------------|
D:/-x--x---x--x---x--x-x-x----------------------------------|
A:/-12-12--10-10--9--9-9-9----------------------------------|
D:/---------------------------------------------------------|

Outro lead guitar
e:/----------------------------------17--------17-----------|
B:/-15-19--19-1717-15vvvv------15-15-----15-15--------------|
G:/-------------------------16------------------------------|
D:/---------------------------------------------------------|
A:/---------------------------------------------------------|
D:/---------------------------------------------------------|

Order:
verse/intro
prechorus
chorus
verse
prechorus
chorus
bridge
solo
chorus
            
Submit corrections


        Unconcerned lessons Hard to play? Try these video lessons and learn fast Unconcerned lessons
        
↑ Back to top | Tablatures and chords for acoustic guitar and electric guitar, ukulele, drums are parodies/interpretations of the original songs. You may use it for private study, scholarship, research or language learning purposes only