» » »

Submersed - To Peace Tabs

Artists:  A B C D E F G H I J K L M N O P Q R S T U V W X Y Z # 

To Peace Tabs

(ver. 3) Click to play this song!
Submersed
 Rating:
4/5 (4 votes)

 To Peace lessons Tabs too difficult? Try these video lessons and learn fast
 
                Intro
e:/--------------------------------------------------------------------|
B:/--------------------------------------------------------------------|
G:/--------------------------------------------------------------------|
D:/-2-02--4b--02-xx-02--4b--02--55---7---7vvvv---7/4---4--4h5p4/2p0----|
A:/-2-02------02-xx-02------02--55-----5-------5-----------------------|
D:/-2-02------02-xx-02------02--55-----5-------5-----------------------|

e:/--------------------------------------------------------------------|
B:/--------------------------------------------------------------------|
G:/--------------------------------------------------------------------|
D:/-2-02--4b--02-xx-02--4b--02--55---7---7vvvv---7/4---4--4h5p4vvvv----|
A:/-2-02------02-xx-02------02--55-----5-------5-----------------------|
D:/-2-02------02-xx-02------02--55-----5-------5-----------------------|

Verse - Strum along to song
e:/-------------------------------------------------------|
B:/-------3333--------------------------------------------|
G:/---88--2222--------------------------------------------|
D:/---77--0000--2222-0-2222-------------------------------|
A:/---55--0000--2222-0-2222-------------------------------|
D:/---55--------2222-0-2222-------------------------------|

0:40
e:/---------------------------------------10----10--10--10--10--10--10-|
B:/------------------------------------12----12---12--12--12--12--12---|
G:/--------------------------------------------------------------------|
D:/----------7---7h9b------7-7h9b--------------------------------------|
A:/------7h9---9-------7h9--9------------------------------------------|
D:/--------------------------------------------------------------------|

Chorus - Strum along like the verse
e:/-------------------------------------------------------|
B:/-------3333--------------------------------------------|
G:/-------2222--------------------------------------------|
D:/---55--0000--2222-0-2222-------------------------------|
A:/---55--0000--2222-0-2222-------------------------------|
D:/---55--------2222-0-2222-------------------------------|

2:29
e:/-------------------------------------------------------|
B:/---------------------10vv------------------------------|
G:/---xxxx-7-9------7-9-------7-9-----9vvvv-7v-5v---------|
D:/------------7vv----------------7vv---------------------|
A:/-------------------------------------------------------|
D:/-------------------------------------------------------|

Second part of 2:29
e:/-------------------------------------------------------|
B:/-----------------10vv----------------------------------|
G:/----7-9------7-9-------7-9-----9vvv--------------------|
D:/--------7vv----------------7vv-----------12\0----------|
A:/-----------------------------------------12\0----------|
D:/-----------------------------------------12\0----------|

3:07 during chorus
e:/-------------------------------------------------------|
B:/-------------------------------------------------------|
G:/-------------------------------------------------------|
D:/---7-99/11\7v------------------------------------------|
A:/-------------------------------------------------------|
D:/-------------------------------------------------------|
            
Submit corrections


        To Peace lessons Hard to play? Try these video lessons and learn fast To Peace lessons
        
↑ Back to top | Tablatures and chords for acoustic guitar and electric guitar, ukulele, drums are parodies/interpretations of the original songs. You may use it for private study, scholarship, research or language learning purposes only